Cifra Club

Princesa

Amado Batista

Cifrado: Principal (guitarra y guitarra eléctrica)
tono: B
[Intro] E  B  F#7  B  F#7

E|-7/12-11-9------7/11-9-7------------------|
B|-------------9-------------7--------------|
G|-----------9-------------8----------------|
D|------------------------------------------|
A|------------------------------------------|
E|------------------------------------------|

E|-9-6----------6-9-7~--6h7p6---------------|
B|-----7------7---------------7~------------|
G|-------8-6--------------------------------|
D|------------------------------------------|
A|------------------------------------------|
E|------------------------------------------|
                       
       B                 E
Ao te ver pela primeira vez
          B
Eu tremi todo

Uma coisa tomou conta
        F#7
Do meu coração
                           B
Com esse olhar meigo de menina
    F#7                          B   F#7
Me fez nascer no peito, esta paixão

[Segunda Parte]

    B                E
E agora não durmo direito
               B
Pensando em você

Lembrando os seus olhos bonitos
      F#7
Perdidos nos meus

Que vontade louca que eu tenho
            B
De tê-la comigo
   F#7
Calar sua boca bonita
              B   B7
Com um beijo meu

[Refrão]

     E                         B
Princesa, a deusa da minha poesia
                      F#7
Ternura da minha alegria
                          B  B7
Nos meus sonhos quero te ver
     E                          B
Princesa, a musa dos meus pensamentos
                        F#7
Enfrento a chuva o mau tempo
                       B
Pra poder um pouco te ver

( E  B  F#7  B  F#7 )

E|-7/12-11-9------7/11-9-7------------------|
B|-------------9-------------7--------------|
G|-----------9-------------8----------------|
D|------------------------------------------|
A|------------------------------------------|
E|------------------------------------------|

E|-9-6----------6-9-7~--6h7p6---------------|
B|-----7------7---------------7~------------|
G|-------8-6--------------------------------|
D|------------------------------------------|
A|------------------------------------------|
E|------------------------------------------|

[Segunda Parte]

    B                E
E agora não durmo direito
               B
Pensando em você

Lembrando os seus olhos bonitos
      F#7
Perdidos nos meus

Que vontade louca que eu tenho
            B
De tê-la comigo
   F#7
Calar sua boca bonita
              B   B7
Com um beijo meu

[Refrão]

     E                         B
Princesa, a deusa da minha poesia
                      F#7
Ternura da minha alegria
                          B  B7
Nos meus sonhos quero te ver
     E                          B
Princesa, a musa dos meus pensamentos
                        F#7
Enfrento a chuva o mau tempo
                       B
Pra poder um pouco te ver

     E                         B
Princesa, a deusa da minha poesia
                      F#7
Ternura da minha alegria
                          B  B7
Nos meus sonhos quero te ver
     E                          B
Princesa, a musa dos meus pensamentos
                        F#7
Enfrento a chuva o mau tempo
                       B
Pra poder um pouco te ver
00:00 / 00:00
Otros videos de esta canción
Repetir
Otros videos de esta canción
Composición de José Fernandes
10.434 vistas
    • ½ Tono
    • A
    • Bb
    • B
    • C
    • Db
    • D
    • Eb
    • E
    • F
    • F#
    • G
    • Ab
  • Agregar a la lista

    0 comentarios

    Ver todos los comentarios
    00:00 / 00:00
    OK