Cifra Club

Aprenda

Al Final

Amaral

Tablatura: Principal (guitarra)
tono: B
Intro:
   B                                 E                                 B
e|----------------|---------0h2--0-|----------------|----------------|----------------|
B|---------0-h2-2-|-0--------------|4--------0-h2-2-|-0--------------|----------------|
G|----------------|----------------|----------------|----------9-8-6-|4-------------2-|
D|----------------|---------2----2-|----------------|----------------|----------------|
A|--------(2)--(2)|(2)-------------|--------(2)--(2)|(2)-------7---4-|2-------------0-|
E|----------------|----------------|----------------|----------------|----------------|

Verso 1:
B
El mismo camino que nos ha visto crecer
E
el mismo camino que nos une y nos separa
B
El mismo que un día sueño vuelvo a recorrer
E                                                 F#
el mismo, y los mismos no quiero que cambie nada.
   B         B/C#*            E          B
E|2-2-2-2---2-2-2-|2---2-2---0-0-0-|0---2-2-2-2---2-|2---|
B|4-4-4-4-r-2-2-2-|2-r-2-2-r-0-0-0-|0-r-4-4-4-4-r-4-|4-r-|
G|4-4-4-4-e-4-4-4-|4-e-4-4-e-1-1-1-|1-e-4-4-4-4-e-4-|4-e-|   (2x)
D|4-4-4-4-s-4-4-4-|4-s-4-4-s-2-2-2-|2-s-4-4-4-4-s-4-|4-s-|
A|2-2-2-2-t-4-4-4-|4-t-4-4-t-2-2-2-|2-t-2-2-2-2-t-2-|2-t-|
E|----------------|----------0-0-0-|0---------------|----|

( C# )

Verso 2:
 Arpegios (durante todo el verso 2):
E|--2-------2-----|--2-------2-----|
B|r---2---r---2---|r---2---r---2---|
G|e-----4-e-----4-|e-----4-e-----4-|
D|s-------s-------|s-------s-------|
A|t-------t-------|t-------t-------|
E|----------------|----------------|

B
Las mismas palabras que me unieron anteayer
E
las mismas palabras que nos juntaran mañana
B
Los mismos sentidos que ahora vuelven a encender
E                                                   F#
aquellos recuerdos que ahora me atan a tu espalda.

Estribilho:
B      C#              E      F#
   La vida no es igual sin ti
B      C#              E         F#
   sin ti la vida ya no es nada
B      C#                 E
   De que me serviría vivir
   F#                   E     F#     F#
si al final no te encontrara.

B             C#            E        F#
   Nos prometimos junto al mar nunca cambiar
B           C#              E         F#
   y aquellas olas hoy ahogaron las palabras
B            C#             E          F#
   Ahora que todo vuelve al fin a su lugar
B          C#            E          F#
   Desde esta playa ganaremos mil batallas.

       E         F#
Desde hoy y por siempre.
G#m     F#             E
   Mis amigos sois el fuerte
          F#      G#m F# E    F#
   tu el alma de mi suerte.

Estribilho:
B        C#                    E      F#
   La vida no fue igual sin ti,
B      C#              E      F#
   conmigo aquí no estarás solo.
B      C#              E
  Ya sé de que sirvió vivir
   F#                   E     F#
si al final lo tengo todo

B        C#                    E      F#
   La vida no fue igual sin ti,
B      C#              E      F#
   conmigo aquí no estarás solo.
B      C#              E
  Ya sé de que sirvió vivir
   F#            G#m    F#
si al final lo tengo todo...
                 E      F#
                      G|--------6b7-6-4-|
si al final lo tengo todo
Riff 1 - 3x:
   G#m              F#               E                F#
E|----------------|----------------|----------------|----------------|
B|----------------|----------------|----------------|----------------|
G|----------6b7-64|3---------6b7-64|----------6b7-64|3---4-----6b7-64|
D|6---------------|----------------|6---------------|----------------|
A|----------------|----------------|----------------|----------------|
E|----------------|----------------|----------------|----------------|
                   E
|3-----4-----6---|8---------------|(3ª vez)
Colaboración y revision:
  • karoline paula
171 reproducciones
    • ½ Tono
    • A
    • Bb
    • B
    • C
    • Db
    • D
    • Eb
    • E
    • F
    • F#
    • G
    • Ab
  • Adicionar à lista

    0 comentarios

    Ver todos os comentários

    ¿Conseguiste tocar?

    0 Tocaram 0 Ainda não

    Grave um vídeo tocando Al Final e nos envie!

    00:00 / 00:00
    outros vídeos desta música
    repetir qualidade Automático
    Outros vídeos desta música
    00:00 / 00:00
    Automático
    OK