Cifra Club

Biarritz

Amaral

Cifrado: Principal (guitarra y guitarra eléctrica)
tono: Em
E|--12---10-12---14-12-10----10-7------|
B|------------------------10-----------|
G|-------------------------------------|
D|-------------------------------------| x2
A|-------------------------------------|
E|-------------------------------------|

E|--7---5-3--2-3-5-7-5--3-0----7--10--12---14-12-10----10-7------|
B|---------------------------------------------------10----------|
G|---------------------------------------------------------------|
D|---------------------------------------------------------------|
A|---------------------------------------------------------------|
E|---------------------------------------------------------------|

First Chorus

   Em C            D            C             D
E|--0--------------------------------------------------|
B|--0--------3-1-0--------3-1-0----1-3-1-0-------------|
G|--0------0------------2--------4---------0---2-------|
D|--2----2------------4---------------------------0----|
A|--2--3------------5----------------------------------|
E|--0--------------------------------------------------|

Second Verse

E|--0-----------------------0-2-3-0-----|
B|--0-----------------------------------|
G|--0-----------------------------------|
D|--2---7-5-9-7--5-4-7-5----------------|
A|--2-----------------------------------|
E|--0-----------------------------------|

E|--7---10-8-7-----5---7-5-3-2---3---8-7-5-3-2-0-3---5---7-5-3-2---|
B|--8----------8---7-------------5-------------------7-------------|
G|-----------------------------------------------------------------|
D|-----------------------------------------------------------------|
A|-----------------------------------------------------------------|
E|-----------------------------------------------------------------|

Second Chorus

   Em C            D            C             D
E|--0---------------------------------------------------|
B|--0--------3-1-0--------3-1-0----1-3-1-0--------------|
G|--0------0------------2--------4---------0---4-2------|
D|--2----2------------4---------------------------------|
A|--2--3------------5-----------------------------------|
E|--0---------------------------------------------------|

   Em C             D            C             D
E|--0----------------------------0----------------------|
B|--0--------3-1-0---------3-1-0-----1-3-1-0------------|
G|--0------0-------------2---------4---------0--2-------|
D|--2----2-------------4--------------------------------|
A|--2--3-------------5----------------------------------|
E|--0---------------------------------------------------|

Bridge
                             (tremolo pick these)
                              / /
E|--12--10--7-8-7-5-7--10--12--15-14---|
B|-------------------------------------|
G|-------------------------------------|
D|-------------------------------------|
A|-------------------------------------|
E|-------------------------------------|


Solo

E|--7-3-0-7-3-0-7-5-0-5--8-8-7-5-0-----|
B|-------------------------------------|
G|-------------------------------------| x2
D|-------------------------------------|
A|-------------------------------------|
E|-------------------------------------|

E|--12--10----12-10----12--10----12-10-----|
B|---------10-------10--------10-------10--|
G|-----------------------------------------|
D|-----------------------------------------|
A|-----------------------------------------|
E|-----------------------------------------|

E|--7--7-7-5-5-5-5---------------5--5-5-------------------------|
B|-----------------8-8-8-7-5-7-8--------8-8-8-8-7-7-7-5-5-7-8---|
G|--------------------------------------------------------------|
D|--------------------------------------------------------------|
A|--------------------------------------------------------------|
E|--------------------------------------------------------------|

E|--7-7-10-8-7----7-7-10-10-8-7-------10-10-8-7-5---|
B|-------------10---------------10-10---------------|
G|--------------------------------------------------|
D|--------------------------------------------------|
A|--------------------------------------------------|
E|--------------------------------------------------|

E|--7-5--------------------------------|
B|------8-7-5---5----------------------|
G|------------7------------------------|
D|-------------------------------------|
A|-------------------------------------|
E|-------------------------------------|

Final Chorus

   Em C            D            C             D
E|--0--------------------------------------------------|
B|--0--------3-1-0--------3-1-0----1-3-1-0-------------|
G|--0------0------------2--------4---------0---2-------|
D|--2----2------------4--------------------------------|
A|--2--3------------5----------------------------------|
E|--0--------------------------------------------------|

   Em  C            D            C             D
E|-----------------------------------------------------|
B|--0---------3-1-0--------3-1-0----1-3-1-0------------|
G|----0-----0------------2--------4---------0---2------|
D|--------2------------4-------------------------------|
A|------3------------5---------------------------------|
E|-----------------------------------------------------|

   Em  C            D              C            D
E|-------------------------------0---------------------|
B|--0---------3-1-0--------3-1-0-----1-3-1-0-----------|
G|----0-----0------------2---------4---------0---2-----|
D|--------2------------4-------------------------------|
A|------3------------5---------------------------------|
E|-----------------------------------------------------|

   Em    C
E|--------8--7--5--7------------------|
B|--0---------------------------------|
G|----0-------------------------------|
D|------------------------------------|
A|------------------------------------|
E|------------------------------------|
   D
E|--10--8--7--------------------------|
B|------------8-----------------------|
G|------------------------------------|
D|------------------------------------|
A|------------------------------------|
E|------------------------------------|
   C                 Em
E|--8--7--5--7--3--2--0----------------|
B|--------------------0----------------|
G|--------------------0----------------|
D|--------------------2----------------|
A|--------------------2----------------|
E|--------------------0----------------|
Composición de Juan Aguirre
8 vistas
    • ½ Tono
    • Am
    • Bbm
    • Bm
    • Cm
    • C#m
    • Dm
    • Ebm
    • Em
    • Fm
    • F#m
    • Gm
    • G#m
  • Agregar a la lista

    0 comentarios

    Ver todos los comentarios

    ¿Lograste tocar?

    0 Tocaron 0 Aún no

    ¡Graba un video tocando Biarritz y envíanoslo!

    00:00 / 00:00
    Otros videos de esta canción
    Repetir Calidad Automático
    Otros videos de esta canción
    00:00 / 00:00
    Automático
    OK