Cifra Club

El artista del alambre

Amaral

Cifrado: Principal (guitarra y guitarra eléctrica)
tono: Am
            Am   Am4   Am               G    G  * G  
E|-0--3--------x----x-----x----------------3----x----x------------------|
B|-------0--3--0----0-----0---0--3---------2----x----x-------------3--0-|
G|-------------2----2-----2---------0--2---0----0----0----0--2--0-------|
D|-------------2----2-----2----------------0----0----0------------------|
A|-------------1----0-----1----------------3----0----0------------------|
E|-------------0----0-----0----------------3----5----3------------------|

 F             Am       G  
E|--1-------------x--------3-------------------------------|
B|--3---3--2--0---0--------2-------------------------------|
G|--3-------------2--------0----2--------------------------|
D|--2-------------2--------0-------0--2--------2--0--2-----|
A|--1-------------1--------2-------------1--0--------------|
E|--1-------------0--------2-------------------------------|

Am 
A la hora de cerrar los bares

C 
El artista del alambre

G  
Habla de la gloria

Dm 
A su propia sombra

Am 
Han pasado demasiados años,

C 
desde los días dorados

G  
En que fue portada

Dm 
de todos los diarios

F           C 
Capital del Reino

Am          G  
de mentiras llenas

F            C 
Todos eran buenos chicos

Am                G  
ahora, quién se acuerda

                ESTRIBILLO

        C 
        Y ahora que todo ha acabado,

        Am 
        que tu vida cae en picado,

        G  
        ¿quién te va a querer ahora?

        F                  G  
        ¡¿Quién te va a querer ahora?!

        C 
        Y ahora que la luz del día,

        Am 
        brilla sobre tus pupilas,

        G  
        ¿Quién se va a creer tu historia?

        F                  G  
        ¡¿Quién se va a creer tu historia?!




            Am   Am4   Am               G    G  * G  
E|-0--3--------x----x-----x----------------3----x----x------------------|
B|-------0--3--0----0-----0---0--3---------2----x----x-------------3--0-|
G|-------------2----2-----2---------0--2---0----0----0----0--2--0-------|
D|-------------2----2-----2----------------0----0----0------------------|
A|-------------1----0-----1----------------3----0----0------------------|
E|-------------0----0-----0----------------3----5----3------------------|

 F             Am       G  
E|--1-------------x--------3-------------------------------|
B|--3---3--2--0---0--------2-------------------------------|
G|--3-------------2--------0----2--------------------------|
D|--2-------------2--------0-------0--2--------2--0--2-----|
A|--1-------------1--------2-------------1--0--------------|
E|--1-------------0--------2-------------------------------|


Am 
En honor a la verdad,

C .
torres más altas calleron

G  
Ahora busca una señal,

Dm 
En los ángeles del cielo.


F           C 
Capital del Reino

Am          G  
de mentiras llenas.

F            C 
Todos eran buenos chicos,

Am                G  
ahora, quién se acuerda


ESTRIBILLO


            Am   Am4   Am               G    G  * G  
E|-0--3--------x----x-----x----------------3----x----x------------------|
B|-------0--3--0----0-----0---0--3---------2----x----x-------------3--0-|
G|-------------2----2-----2---------0--2---0----0----0----0--2--0-------|
D|-------------2----2-----2----------------0----0----0------------------|
A|-------------1----0-----1----------------3----0----0------------------|
E|-------------0----0-----0----------------3----5----3------------------|

 F             Am       G                             F           C 
E|--1-------------x--------3--------------------------------------------|
B|--3---3--2--0---0--------2--------------------------------------------|
G|--3-------------2--------0----2-----------------------------------2---|
D|--2-------------2--------0-------0--2--------2--0--2--2-----2--0------|
A|--1-------------1--------2-------------1--0--------------0------------|
E|--1-------------0--------2--------------------------------------------|

                  F           G  
E|--------------------------------------|
B|--------------------------------------|
G|--2------------------------------0----|
D|------------2--0--2--2-----2--0-------|
A|------1--0--------------0-------------|
E|--------------------------------------|


F            C 
Todos eran buenos chicos,

Am                G  
ahora, quién se acuerda
Composición de Eva Amaral / Juan Aguirre
2 vistas
    • ½ Tono
    • Am
    • Bbm
    • Bm
    • Cm
    • C#m
    • Dm
    • Ebm
    • Em
    • Fm
    • F#m
    • Gm
    • G#m
  • Agregar a la lista

    0 comentarios

    Ver todos los comentarios

    ¿Lograste tocar?

    0 Tocaron 0 Aún no

    ¡Graba un video tocando El artista del alambre y envíanoslo!

    00:00 / 00:00
    Outros vídeos desta música
    Repetir Calidad Automático
    Outros vídeos desta música
    00:00 / 00:00
    Automático
    OK