Cifra Club

Esta Madrugada

Amaral

Cifrado: Versão 4 (guitarra y guitarra eléctrica)
tono: Em
Intro

   Em  x6  |   Intro en Mim (tonalidad real Solm)
E|----0----|-------0--0-0-0--3--3-3-3-3-2-2-2-0-0-3-3-2-0-3-3-3-2-2-2-|
B|------0--|-------0--0-0-0--0----------------0-0-------0-------------|
G|--------0|-------0--0-0-0--0----------------0-0-------0-------------|
D|--2------|-2-----2--------------------------2-----------------------|
A|--2------|-2-----2--------------------------2-----------------------|
E|--0------|----------------------------------------------------------|
                                              +


Variación en Lam (tonalidad real Dom), se hace solo 1 vez

E|-----5--5------------------0-----3-3-3-2-2-0--------------------|
B|-----5--5--8-8-8-8-7-7-5---0-------------------------------|
G|-----5--5------------------0-------------------------|
D|-----7--7------------------2-----------------------------|
A|-----7--7------------------2-------------------------------|
E|-----5--5------------------0-------------------------------|
      (*)                   (+)

*rasgado varias veces         [+] Vuelta al primer signo +



Transiciones entre acordes durante la frase

   Em            C        D              G      D        Em  (al inicio)
E|--0---0---------0--------2-----------------------------------|
B|--0----0---3----1--1-0---3--3---1-0-0---------------------|
G|--0-------------0--------2----2-------2-0------------------|
D|--2-------------2--------0-----------------0-----0-----2--|
A|--2-------------3-------------------------2-2---2-2----2-----|
E|--0-------------------------------------3------2-------0--------------|


Em           C 
Ha pasado el tiempo
        D            G     D       Em 
No he dejado ni un momento de   pensar
              C 
En los viejos sueños
       D            G       D      Em 
En las noches de conciertos en un  bar

Em           C 
Ha pasado el tiempo
     D            G      D 
Y no sé porque te cuento esto
Em             C 
Será que se ha ido
      D          G        D 
La inocencia que llevo conmigo


Las frases que incluyen Lam las hace rasgando las cuerdas de manera más seca.
Acorde Re siempre jugando con el dedo meñique
en la 6ª cuerda sobre el traste 3.

Em           Am 
Si será el dolor
             C             G         D 
De este amanecer que me ha helado el alma
Em           Am 
Quiero despertar
                C          D         Em   D 
Porque no puede ser verdad esta mala hora

C         D    G          D 
Esta madrugada que parece nunca acabar
C          D             Em 
Esta noche de angustiosa calma

Em            C              D           G       D      Em 
Va pasando el tiempo bajo el cielo sin estrellas de  Madrid
              C             D             G     D 
Pero hoy no encuentro la ilusión que me quemaba dentro
Em          Am            C             G   D 
Nada mas llegar a esta ciudad que nos devora
Em           Am                C 
Dime donde estás que te quiero ver
          D             Em  D 
Y dejar pasar esta mala hora

C         D    G          D 
Esta madrugada que parece nunca acabar
C          D             Em 
Esta noche de angustiosa calma
C          D    G            D 
Quédate conmigo hasta que la luz se haga
C         D 
Esta madrugada

Em  C  D  x2

Em           Am 
Quiero despertar
                C          D         Em   D 
Porque no puede ser verdad esta mala hora


C         D    G          D 
Esta madrugada que parece nunca acabar
C          D             Em 
Esta noche de angustiosa calma
C          D    G            D 
Quédate conmigo hasta que la luz se haga
C            D          Em 
Esta noche oscura de mi alma
C         D    G          D               C 
Esta madrugada que parece nunca, nunca acabar
D           Em 
Oh Uh Oh Oh Oh
C          D    G            D 
Quédate conmigo hasta que la luz se haga
C         D    Em 
Esta madrugada

Em  C  D  ...
Composición de Eva Amaral / Juan Aguirre
    • ½ Tono
    • Am
    • Bbm
    • Bm
    • Cm
    • C#m
    • Dm
    • Ebm
    • Em
    • Fm
    • F#m
    • Gm
    • G#m
  • Agregar a la lista

    0 comentarios

    Ver todos los comentarios

    ¿Lograste tocar?

    0 Tocaron 0 Aún no

    ¡Graba un video tocando Esta Madrugada y envíanoslo!

    00:00 / 00:00
    Outros vídeos desta música
    Repetir Calidad Automático
    Outros vídeos desta música
    00:00 / 00:00
    Automático
    OK