Cifra Club

Esta Madrugada

Amaral

Cifrado: Versão 3 (guitarra y guitarra eléctrica)
tono: Em
Em           C 
Ha pasado el tiempo
        D            G     D       Em 
No he dejado ni un momento de   pensar
              C 
En los viejos sueños
       D            G       D      Em 
En las noches de conciertos en un  bar


G  O:

   Em 
E|--3------------------------------3------------------------|
B|--3---3----3---4---3-------3-----3------------------------|
G|--3--------------------5-----5-3-3------------------------|
D|--5------5-----------------------5------------------------|
A|--5------------------------------5------------------------|
E|--3------------------------------3------------------------|

ESTROF  1:

Em           C 
Ha pasado el tiempo
     D            G      D 
Y no sé porque te cuento esto

Em             C 
Será que se ha ido
      D          G        D 
La inocencia que llevo conmigo

ESTROF  1:

Em                  C               D        G     D 
E|-------------------------------------------6--6--5--5------|
B|--------3---------------4------------6-----6--6--6--6------|
G|------3----3-----------3---3--------5------3--3--5--5------|
D|--5----------5--------------------3--------3--3--3--3------|
A|------------------5------------------------5--5--3--3------|
E|-------------------------------------------6--6--3--3------|

   Em              C                D       G      D 
E|-------------------------------------------6--6--5--5------|
B|--------3---------------4------------6-----6--6--6--6------|
G|------3----3-----------3---3--------5------3--3--5--5------|
D|--5----------5--------------------3--------3--3--3--3------|
A|------------------5------------------------5--5--3--3------|
E|-------------------------------------------6--6--3--3------|



ESTROF  2:

Em           Am 
Si será el dolor
             C             G         D 
De este amanecer que me ha helado el alma


Em           Am 
Quiero despertar
                C          D         Em   D 
Porque no puede ser verdad esta mala hora


ESTROF  2:

   Em              Am           C          G      D 
E|-----------------------------------------6-6---5-5------|
B|--------3------------4-----------4-3-----6-6---6-6------|
G|------3----3------5-----5-----5----------3-3---5-5------|
D|--5----------5---5-----------------------3-3---3-3------|
A|-----------------------------------------5-5---3-3------|
E|-----------------------------------------6-6---3-3------|

Em               Am         C              Em ...  D ...
E|------------------------------------------3-----5--------|
B|--------3--4-3---------3--------4-3-------3-----6--------|
G|------3--------5-----5--5-3---------5-----3-----5--------|
D|--5---------------------------5-----------5-----3--------|
A|------------------------------------------5-----3--------|
E|------------------------------------------3-----3--------|



Escala:

E|-----3-6-5-3---3---------------------|
B|---6---------6-----------------------|
G|-------------------------------------|
D|-------------------------------------|
A|-------------------------------------|
E|-------------------------------------|

Canto 1:

C         D (+7)G          D 
Esta madrugada que parece nunca acabar
C          D             Em 
Esta noche de angustiosa calma

E|-------6--5--6------5-------3----------5---------|
B|---6---------------------------------------------|
G|-------------------------------------------------|
D|-------------------------------------------------|
A|-------------------------------------------------|
E|-------------------------------------------------|




G  O:

   Em 
E|--3------------------------------3------------------------|
B|--3---3----3---4---3-------3-----3------------------------|
G|--3--------------------5-----5-3-3------------------------|
D|--5------5-----------------------5------------------------|
A|--5------------------------------5------------------------|
E|--3------------------------------3------------------------|
ESTROF  1:

Em            C              D           G       D      Em 
Va pasando el tiempo bajo el cielo sin estrellas de  Madrid
              C             D             G     D 
Pero hoy no encuentro la ilusión que me quemaba dentro

ESTROF  2:

Em          Am            C             G   D 
Nada mas llegar a esta ciudad que nos devora
Em           Am                C 
Dime donde estás que te quiero ver
          D             Em  D 
Y dejar pasar esta mala hora

Escala:

E|-----3-6-5-3---3---------------------|
B|---6---------6-----------------------|
G|-------------------------------------|
D|-------------------------------------|
A|-------------------------------------|
E|-------------------------------------|

Canto 1:

C         D (+7)G          D 
Esta madrugada que parece nunca acabar
C          D             Em 
Esta noche de angustiosa calma

Canto 1:

E|-------6--5--6------5-------3----------5---------|
B|---6---------------------------------------------|
G|-------------------------------------------------|
D|-------------------------------------------------|
A|-------------------------------------------------|
E|-------------------------------------------------|

E|-------3-----3--6-5-3------------------------------|
B|---6-------6---------------------------------------|
G|---------------------------------------------------|
D|---------------------------------------------------|
A|---------------------------------------------------|
E|---------------------------------------------------|

Canto 1:
C         D (+7)G            D 
Quédate conmigo hasta que la luz se haga
C         D 
Esta madrugada


Canto 1:

E|-------6--5--6------5-------3----------5---------|
B|---6---------------------------------------------|
G|-------------------------------------------------|
D|-------------------------------------------------|
A|-------------------------------------------------|
E|-------------------------------------------------|

G  O 2 : Em  C  D  x2

G  O 2:



E|------------------------------------------8--6------------|
B|------3----3---4---3-------3------------------------------|
G|-----------------------5-3----5-5-------------------------|
D|--5------5------------------------------------------------|
A|----------------------------------------------------------|
E|----------------------------------------------------------|

E|--------------------------------------13--10--8--6--------|
B|------3----3---4---3-------3------------------------------|
G|-----------------------5-3----5-5-------------------------|
D|--5------5------------------------------------------------|
A|----------------------------------------------------------|
E|----------------------------------------------------------|







Em           Am 
Quiero despertar
                C          D         Em   D 
Porque no puede ser verdad esta mala hora

Escala:


E|-----3-6-5-3---3---------------------|
B|---6---------6-----------------------|
G|-------------------------------------|
D|-------------------------------------|
A|-------------------------------------|
E|-------------------------------------|





Canto 1:

C         D  (+7)G          D 
Esta madrugada que parece nunca acabar
C          D             Em 
Esta noche de angustiosa calma

Canto 1:

E|-------6--5--6------5-------3----------5---------|
B|---6---------------------------------------------|
G|-------------------------------------------------|
D|-------------------------------------------------|
A|-------------------------------------------------|
E|-------------------------------------------------|





Canto 1:

C         D  (+7)G            D 
Quédate conmigo hasta que la luz se haga
C            D          Em   (canto3)
Esta noche oscura de mi alma

Canto 1:

E|-------6--5--6------5-------3----------5---------|
B|---6---------------------------------------------|
G|-------------------------------------------------|
D|-------------------------------------------------|
A|-------------------------------------------------|
E|-------------------------------------------------|


Canto 3:

E|--------------------8--6--5--8--6-5/6------------|
B|-------3----3------------------------------------|
G|-------------------------------------------------|
D|---5------5--------------------------------------|
A|-------------------------------------------------|
E|-------------------------------------------------|


Canto1:

C         D    G          D               C 
Esta madrugada que parece nunca, nunca acabar
D           Em 
Oh Uh Oh Oh Oh


Canto2:
C          D    G            D 
Quédate conmigo hasta que la luz se haga
C         D    Em 
Esta madrugada


Canto 2:

E|-----3-6-5-3---3---------------------|
B|---6---------6-----------------------|
G|-------------------------------------|
D|-------------------------------------|
A|-------------------------------------|
E|-------------------------------------|

E|-----3-6-5-3-------------------------|
B|---6---------3-----------------------|
G|-------------------------------------|
D|-------------------------------------|
A|-------------------------------------|
E|-------------------------------------|


Em  C  D  ... x3 E  

  Em 
E|------------------------------------------8--6------------|
B|------3----3---4---3-------3------------------------------|
G|-----------------------5-3----5-5-------------------------|
D|--5------5------------------------------------------------|
A|----------------------------------------------------------|
E|----------------------------------------------------------|

E|--------------------------------------13--10--8--6--------|
B|------3----3---4---3-------3------------------------------|
G|-----------------------5-3----5-5-------------------------|
D|--5------5------------------------------------------------|
A|----------------------------------------------------------|
E|----------------------------------------------------------|

E|--------------------------------------10--8--6------3-----|
B|------3----3---4---3-------3------------------------3-----|
G|-----------------------5-3----5-5-------------------3-----|
D|--5------5------------------------------------------5-----|
A|----------------------------------------------------5-----|
E|----------------------------------------------------3-----|
Composición de Eva Amaral / Juan Aguirre
    • ½ Tono
    • Am
    • Bbm
    • Bm
    • Cm
    • C#m
    • Dm
    • Ebm
    • Em
    • Fm
    • F#m
    • Gm
    • G#m
  • Agregar a la lista

    0 comentarios

    Ver todos los comentarios

    ¿Lograste tocar?

    0 Tocaron 0 Aún no

    ¡Graba un video tocando Esta Madrugada y envíanoslo!

    00:00 / 00:00
    Outros vídeos desta música
    Repetir Calidad Automático
    Outros vídeos desta música
    00:00 / 00:00
    Automático
    OK