Cifra Club

No sabe donde va

Amaral

Cifrado: Principal (guitarra y guitarra eléctrica)
tono: G
Primer punteo
E|-----------------------------------------------------------------------|
B|--0-----0-----0---1---0---------------0-----------------0--------------|
G|-----0-----0-------------2---0------------2---0-------------2---0------|
D|--------------------------------0-----------------0-----------------0--|
A|-----------------------------------------------------------------------|
E|-----------------------------------------------------------------------|

E|-----------------------------------------------------------------------|
B|--0-----0-----0---3----1----0-----------1---0------------1----0--------|
G|-----0-----0--------------------2--------------2---0--------------0---2|
D|-----------------------------------------------------------------------|
A|-----------------------------------------------------------------------|
E|-----------------------------------------------------------------------|

G        D 
Uh, no sabe a d00de va
         C      Em   Am   Em    D 
Pero sí sabe que algún día llegará
G        D 
Uh, no tiene maldad
         C      Em   Am   Em    D 
Y sus amigos creen que pronto volverá

Am                     G  
La vida en la pequeña aldea
Em               C                       Am 
Trabajando por la tierra le empezaba a marchitar
Am                     G  
Y se ha marchado sin maletas                                       e---3
Em               C            Am          D -Dsus -D        *Resus B---3
Y con la cabeza llena de historias que inventar                    G---2


G       D 
Uh, no sabe a dónde va
         C      Em    Am   Em   D 
Pero sí sabe que algún día llegará
G       D 
Uh, no tiene maldad
         C      Em    Am   Em   D 
Y sus amigos creen que pronto volverá

Am                     G  
Le han enseñado a ser valiente,
Em                C                      Am 
A querer bien a su gente, a saber cuándo escuchar
Am                   G  
Ahora ella toma la palabra,
Em                 C            Am          D -Dsus -D 
Ahora se marcha de casa, Quiere ver el mundo, hacerlo suyo.


G               D 
Uh, no sabe a dónde va
       C       Em    Am    Em    D 
Y de momento lo ha dejado todo atrás

Segundo punteo
E|----------------------------------------------|
B|-0----0-----0----1---0----------0-----0-----0-|
G|---0-----0---------------2--0------0-----0----|
D|----------------------------------------------|
A|----------------------------------------------|
E|----------------------------------------------|

E|----------------------------------------|
B|--1---0---------------------0-----------|
G|---------2---0-------0---2-----2---0---2|
D|-----------------0----------------------|
A|----------------------------------------|
E|----------------------------------------|

E|----------------------------------------------------------------------|
B|--0---0----0---3--1--0----------1--0-------------1---0------------3---|
G|----0----0---------------2---2---------2--0--0-----------0---2--------|
D|--------------------------------------------------------------------4-|
A|---------------------------------------------------------------------5-|
E|----------------------------------------------------------------------|

Am                        G  
Sabe muy bien lo que se siente
E                   C                       Am 
Cuando nadie te comprende Y estás fuera de lugar
Am                        G  
Porque su mundo es diferente
Em                       C                   Am 
Y parece siempre ausente, Sólo un bicho raro con pocos años

Am                        G  
Le acompañan las canciones,
Em                      C                       Am 
Las antiguas grabaciones Que guardaba en el desván
Am                              G  
El tocadiscos de su hermana
Em                      C          Am        D -Dsus -D 
Con la aguja mal templada Todavía suena mientras ella se aleja
G                         D 
Uh, no sabe a dónde va
C                   Em  Am   Em   G  
Pero sí sabe que algún día llegará


G                       D 
Uh, no sabe a dónde va
    C   Em   Am   Em 
Pero no va olvidar de dónde viene,
    C   Em   Am   Em 
Porque es todo lo que tiene
    C   Em   Am    Em       G  
Mientras ella aprende a caminar
Composición de Eva Amaral / Juan Aguirre
6 vistas
    • ½ Tono
    • A
    • Bb
    • B
    • C
    • Db
    • D
    • Eb
    • E
    • F
    • F#
    • G
    • Ab
  • Agregar a la lista

    0 comentarios

    Ver todos los comentarios

    ¿Lograste tocar?

    0 Tocaron 0 Aún no

    ¡Graba un video tocando No sabe donde va y envíanoslo!

    00:00 / 00:00
    Outros vídeos desta música
    Repetir Calidad Automático
    Outros vídeos desta música
    00:00 / 00:00
    Automático
    OK