Cifra Club

Revolución

Amaral

Cifrado: Principal (guitarra y guitarra eléctrica)
tono: F
E|-------------------------------------------|
B|--10----10-11-13-11-13--10----10-11-13-11*-|
G|-----10--------------------10--------------|
D|-------------------------------------------|
A|-------------------------------------------|
E|-------------------------------------------|

E|-------------------------------------------|
B|--10----10-11-13-11-13--10----10-11-13-11*-|
G|-----10--------------------10--------------|
D|-------------------------------------------|
A|-------------------------------------------|
E|-------------------------------------------|

E|-------------------------------------------|
B|--10----10-11-13-11-13--10----10-11-13-11*-|
G|-----10--------------------10--------------|
D|-------------------------------------------|
A|-------------------------------------------|
E|-------------------------------------------|

E|-------------------------------------------|
B|--11----11-13-11(*)--11----11-13-11(*)-----|
G|-----10-----------------10-----------------|
D|-------------------------------------------|
A|-------------------------------------------|
E|-------------------------------------------|
00:00 / 00:00
Otros videos de esta canción
Repetir
Otros videos de esta canción
Composición de Juan Aguirre, Eva Amaral
18 vistas
    • ½ Tono
    • A
    • Bb
    • B
    • C
    • Db
    • D
    • Eb
    • E
    • F
    • F#
    • G
    • Ab
  • Agregar a la lista

    0 comentarios

    Ver todos los comentarios

    ¿Lograste tocar?

    0 Tocaron 0 Aún no

    ¡Graba un video tocando Revolución y envíanoslo!

    00:00 / 00:00
    OK