Cifra Club

Robin Hood

Amaral

Cifrado: Principal (guitarra y guitarra eléctrica)
tono: A
      A   E  A     D   A  E      A   E  A       D   E  A 
E|----------0-------0-------------------------------------|
B|---0-2-0-0-2-------3--2--0-----0-2-0-0-2---------2-0----|
G|--2-----2---2----2------------2-----2---2-------2---2-2-|
D|-2--------------2------------2--------------------------|
A|-------------------------------------------0-2-4------0-|
E|--------------------------------------------------------|

  F#m        D            A            E      A    E  A      D  E  A 
E|--9-9-9-7-5--10-9-10-9-7--12h-12-10-9-7-4----------------------------|
B|---------------------------------------------0-2-0-0-2--------2-0----|
G|--------------------------------------------2-----2---2------2---2-2-|
D|-------------------------------------------2-------------------------|
A|-2------------------------------------------------------0-2-4------0-|
E|---------------------------------------------------------------------|


A   E   A 
D   A   E 
A   E   A 
D   E   A 
F#m   D   A   E 
A   E   A 
D   E   A 


A        E           A 
Cuando tocaba en los bares
D     A          E 
Un borracho me decía
A         E            A 
“En las cenizas del fracaso
  D     E     A 
Está la sabiduría”.
A         E     A 
La piedra filosofal
    D     A        E 
Que yo busqué cada día
F#m              E         A 
Que aún no he podido encontrar,
    D      E           A 
Tal vez porque ya no exista.

A   E   A 
D   A   E 
A   E   A 
D   E   A 

A         E          A 
Cuando dormía en los parques
D    A        E 
Un arcángel venía
A      E        A 
A protegerme de noche,
       D     E      A 
A espantar a la policía.

F#m 
No sé lo que pasó,
D 
Si estaba escrito o no,
A                    E 
Si fue su culpa o la mía.
F#m 
Pero mi ángel cayó,
D 
Igual que yo caí
A                 E 
En cada vicio que me descubría.
       A            E    A 
La diferencia entre él y yo,
       D      E        A 
Es que yo aún sigo con vida.

A   E   A 
D   A   E 
F#m   E   A 
D   E   A 


F#m 
Siempre tenía un plan,
D 
Hablaba de escapar
A                    E 
Robando un barco del puerto.
F#m 
Si le hubiera dejado
D 
Hubiera reventado
A                    E 
La caja fuerte de un banco creyendo en
F#m      E        A     D   E   A 
Delirios de Robin Hood.
F#m      E        A     D   E   A 
Delirios de Robin Hood.
Composición de E. Amaral / J. Aguirre
15 vistas
    • ½ Tono
    • A
    • Bb
    • B
    • C
    • Db
    • D
    • Eb
    • E
    • F
    • F#
    • G
    • Ab
  • Agregar a la lista

    0 comentarios

    Ver todos los comentarios

    ¿Lograste tocar?

    0 Tocaron 0 Aún no

    ¡Graba un video tocando Robin Hood y envíanoslo!

    00:00 / 00:00
    Outros vídeos desta música
    Repetir Calidad Automático
    Outros vídeos desta música
    00:00 / 00:00
    Automático
    OK