Cifra Club

Rock & roll

Amaral

Cifrado: Principal (guitarra y guitarra eléctrica)
tono: G
Intro:

E|------------------------------------------------------------------------|
B|-----0---------0--0~1~0-------3--0~1~0----------1-0------------3--------|
G|-0~2---2-0---0----------2-0-2----------2-0----------0-2------2---2---0--|
D|-----------4-------------------------------2--2----------0-4-------4----|
A|------------------------------------------------------------------------|
E|------------------------------------------------------------------------|

G                   D
Era la banda del barrio
                   Em
como los truenos sonando
                 D
rompiendo la medianoche
                 Em
encima del escenario.

Em      G            D
Sólo teníamos quince años
                    Em
y ahí supe lo que sería
                 D
dos corazones marcados
                      Em   Em D C
para el resto de los días.

       D         Em
Ya no tengo solución
       C             G
sé que no tengo remedio
          C             D
rock and roll para ser libres
         Em
como el viento.

Em     G           D
Eran maneras de vivir
                  Em
por un pedazo de sueño
             G       D
siempre que salgo a tocar
                        Em
me acuerdo de aquellos tiempos.

C                 G
Sigo buscando la verdad
C                     G
cuando se rompe el silencio
                     D
siempre que salgo a tocar
                  Em      Em D C
me vienen esos recuerdos.

       D        Em
Ya no tengo solución
       C           G
sé que no tengo remedio
          C               D
rock and roll para ser libres
          Em   Em D C
como el viento.

       D        Em
Ya no tengo solución
       C             G
sé que te echaré de menos
     C              D
yo nací para ser libre
            Em
como el viento.


E|--------------------------------------------------------------------0-0-|
B|-----0---------0-0~1~0------3-0~1~0------------1-0-------0-0-1-1-3-3----|
G|-0~2---2-0---0--------2-0-2--------2-0--0----------0-2-2----------------|
D|-----------4---------------------------2--2---2-------------------------|
A|--------------------------------------------2---------------------------|
E|------------------------------------------------------------------------|


C      D         Em
Ya no tengo solución
       C           G
sé que no tengo remedio
          C               D
rock and roll para ser libres
            Em  Em D C
como el viento.

       D        Em
Ya no tengo solución
       C             G
se que te echaré de menos
     C              D
yo nací para ser libre
            Em  Em  D
como el viento.

C D Em D (x3)

Em
00:00 / 00:00
Otros videos de esta canción
Repetir
Otros videos de esta canción
Compositor no encontrado.
3 vistas
    • ½ Tono
    • A
    • Bb
    • B
    • C
    • Db
    • D
    • Eb
    • E
    • F
    • F#
    • G
    • Ab
  • Agregar a la lista

    0 comentarios

    Ver todos los comentarios

    ¿Lograste tocar?

    0 Tocaron 0 Aún no

    ¡Graba un video tocando Rock & roll y envíanoslo!

    00:00 / 00:00
    OK