Cifra Club

Everything We Were Has Become What We Are

Amber Pacific

Cifrado: Principal (guitarra y guitarra eléctrica)
tono: B
Tabbed by: I-Z
Email:*

Tuning: Drop D

INTRO
X2
e|------------------------------------------------------------------------|
B|------------------------------------------------------------------------|
G|------33----------------33------------444---33------------666-33--66443-|
D|111-----443344643-111-----443344643---444-----443344643---666---44-----43 
A|111---------------111-----------------222-----------------444-----------|
D|111---------------111---------------------------------------------------|

          X2
e|-------|-----------------------------------------------------------------|
B|-------|-----------------------------------------------------------------|
G|-------|--------4------6------8-----6------------------------------------|
D|-111111|-1------4-x16--6-x16--8-x8--6-x8---------------------------------|
A|-111111|-1-x16--2------4------6-----4------------------------------------|
D|-111111|-1---------------------------------------------------------------|
   ******
Pre Chorus-those are ones not elevens

e|-------------------------------------------------------------------------|
B|-------------------------------------------------------------------------|
G|-----------44---66-------------------------------------------------------|
D|-11---11---44---66---11--------------------------------------------------|
A|-11---11---22---44---11--------------------------------------------------|
D|-11---11-------------11--------------------------------------------------|

CHORUS

e|-------------------------------------------------------------------------|
B|-------------------------------------------------------------------------|
G|--8--10--11--6--8--11-10--8--6--11--10-----------------------------------|
D|--x--x---x---x--x--x--x---x--x--x---x----x2------------------------------|
A|--6--8---9---4--6--9--8---6--4--9---8------------------------------------|
D|-------------------------------------------------------------------------|

e|-------------------------------------------------------------------------|
B|-------------------------------------------------------------------------|
G|---------4------6------8-----6-------------------------------------------|
D|--1------4-x16--6-x16--8-x8--6-x8-----x2---------------------------------|
A|--1-x16--2------4------6-----4-------------------------------------------|
D|--1----------------------------------------------------------------------|
    *      *      *      *     *
you can hear this in the back round of the second verse just listen
e|-------------------------------------------------------------------------|
B|-------------------------------------------------------------------------|
G|--33---------------------------------------------------------------------|
D|----44334----------------------------------------------------------------|
A|-------------------------------------------------------------------------|
D|-------------------------------------------------------------------------|






Pre Chorus

e|-------------------------------------------------------------------------|
B|-------------------------------------------------------------------------|
G|-----------44---66-------------------------------------------------------|
D|-11---11---44---66---11--------------------------------------------------|
A|-11---11---22---44---11--------------------------------------------------|
D|-11---11-------------11--------------------------------------------------|

CHORUS

e|-------------------------------------------------------------------------|
B|-------------------------------------------------------------------------|
G|--8--10--11--6--8--11-10--8--6--11--10-----------------------------------|
D|--x--x---x---x--x--x--x---x--x--x---x----x2------------------------------|
A|--6--8---9---4--6--9--8---6--4--9---8------------------------------------|
D|-------------------------------------------------------------------------|


BRIDGE
Listen to figure out the chord changes

e|-------------------------------------------------------------------------|
B|-------------------------------------------------------------------------|
G|--------4--6-----------33------------------------------------------------|
D|--4--1--4--6---x2---1----443346------------------------------------------|
A|--4--1--2--4--------1----------------------------------------------------|
D|--4--1--------------1----------------------------------------------------|
    *  *  *  *

CHORUS

e|-------------------------------------------------------------------------|
B|-------------------------------------------------------------------------|
G|--8--10--11--6--8--11-10--8--6--11--10-----------------------------------|
D|--x--x---x---x--x--x--x---x--x--x---x----x2------------------------------|
A|--6--8---9---4--6--9--8---6--4--9---8------------------------------------|
D|-------------------------------------------------------------------------|

OUTRO

e|-------------------------------------------------------------------------|
B|-------------------------------------------------------------------------|
G|-------33----------------------------------------------------------------|
D|--11-----443344643-111---------------------------------------------------|
A|--11---------------111---------------------------------------------------|
D|--11---------------111---------------------------------------------------|





| /  slide up
| \  slide down
| h  hammer-on
| p  pull-off
| ~  vibrato
| +  harmonic
| x  Mute note

Composición de Will Nutter
19 vistas
    • ½ Tono
    • A
    • Bb
    • B
    • C
    • Db
    • D
    • Eb
    • E
    • F
    • F#
    • G
    • Ab
  • Agregar a la lista

    0 comentarios

    Ver todos los comentarios

    ¿Lograste tocar?

    0 Tocaron 0 Aún no

    ¡Graba un video tocando Everything We Were Has Become What We Are y envíanoslo!

    00:00 / 00:00
    Outros vídeos desta música
    Repetir Calidad Automático
    Outros vídeos desta música
    00:00 / 00:00
    Automático
    OK