Cifra Club

Gone So Young

Amber Pacific

Cifrado: Principal (guitarra y guitarra eléctrica)
tono: B
I think this is just about right.. i might have missed a few small things not too sure..
some of it was tricky to make out. I didn't show strumming either so just listen to the
song to figure it out.


                        Intro G1 (Lead)
e :------------------------------------------------------|
B :---------------|----x2----|---------------------------|
G :-4~-8--6~-8-----11-9--8--6-----4~-8--6~-8--4~---------|
D :-x--x--x--x-----x--x--x--x-----x--x--x--x--x----------|
A :-2~-6--4~-6-----9--7--6--4-----2~-6--4~-6--2~---------|
D :------------------------------------------------------|

e :------------------------------------------------------|
B :------------------------------------------------------|
G :-6/8\6\4~\3/4~----------------------------------------|
D :-x-x-x-x--x-x-----------------------------------------|
A :-4/6\4\2~\1/2~----------------------------------------|
D :------------------------------------------------------|

                        Intro G2 (Rhythm)
e :------------------------------------------------------|
B :------------------------------------------------------|
G :-444-----------------444------------------------------|
D :-444--444--222--444--444--444--222--4~----------------|
A :-222--444--222--444--222--444--222--4~----------------|
D :------444--222--444-------444--222--4~----------------|
_________________________________________________________

                        Verse 1 G1
e :------------------------------------------------------|
B :--------Acoustic----------------|---------------------|
G :-4~------4~------444----------------------------------|
D :-4~--2~--4~--4~--444--222--44444----------------------|
A :-2~--2~--2~--4~--222--222--44444----------------------|
D :-----2~------4~-------222--44444----------------------|

                        Verse 1 G2
e :------------------------------------------------------|
B :------------------------------------------------------|
G :-4~------4~---------444-------444---------------------|
D :-4~--2~--4~--4~-----444--222--444--444----------------|
A :-2~--2~--2~--4~-x2--222--222--222--444----------------|
D :-----2~------4~----------222-------444----------------|
                       ...  ...  ...  ...
e :------------------------------------------------------|
B :------------------------------------------------------|
G :-444--------------------------------------------------|
D :-444--222--4444444~-4444------------------------------|
A :-222--222--4444444~-4444------------------------------|
D :------222--4444444~-4444------------------------------|
    ...  ...  ......
_________________________________________________________

                        Chorus 1 G1
e :------------------------------------------------------|
B :------------------------------------------------------|
G :-444-666-111111-444-888-666-444-6~--------------------|
D :-xxx-xxx-x-x-x--xxx-xxx-xxx-xxx-x---------------------|
A :-222-444-9-9-9--222-666-444-222-4~--------------------|
D :------------------------------------------------------|

                        Chorus 1 G2
e :------------------------------------------------------|
B :------------------------------------------------------|
G :-444-----------------444------------------------------|
D :-444--444--666--222--444--444--666--4~--66666666------|
A :-222--444--666--222--222--444--666--4~--66666666------|
D :------444--666--222-------444--666--4~--66666666------|
                                           .....
_________________________________________________________

                        Verse 2 G1
                comes in at "who sat through"
e :------------------------------------------------------|
B :------------------------------------------------------|
G :-8-8-8-8-11-11-11-11-4-4-4-4-3-3-3-3-8-8-8-8-11-11-11-|
D :------------------------------------------------------|
A :------------------------------------------------------|
D :------------------------------------------------------|

e :------------------------------------------------------|
B :------------------------------------------------------|
G :-11-3-3-3-3-------------------------------------------|
D :-------------4444-------------------------------------|
A :-------------4444-------------------------------------|
D :-------------4444-------------------------------------|

                        Verse 2 G2
e :------------------------------------------------------|
B :------------------------------------------------------|
G :-444-------444-------444------------------------------|
D :-444--222--444--444--444--222--4444444----------------|
A :-222--222--222--444--222--222--4444444----------------|
D :------222-------444-------222--4444444----------------|
    ...  ...  ...  ...  ...  ...  .......

e :------------------------------------------------------|
B :------------------------------------------------------|
G :-4-444---------4-444---------------4-444--------------|
D :-4-444--2-222--4-444--4-44-4-4444--4-444--2-222-------|
A :-2-222--2-222--2-222--4-44-4-4444--2-222--2-222-------|
D :--------2-222---------4-44-4-4444---------2-222-------|
      ...    ...    ...    ..   ....    ...    ...

e :------------------------------------------------------|
B :------------------------------------------------------|
G :------------------------------------------------------|
D :-4-444444---------------------------------------------|
A :-4-444444---------------------------------------------|
D :-4-444444---------------------------------------------|
      ....    
Compositor não encontrado.
34 vistas
    • ½ Tono
    • A
    • Bb
    • B
    • C
    • Db
    • D
    • Eb
    • E
    • F
    • F#
    • G
    • Ab
  • Agregar a la lista

    0 comentarios

    Ver todos los comentarios

    ¿Lograste tocar?

    1 Tocaron 0 Aún no

    ¡Graba un video tocando Gone So Young y envíanoslo!

    00:00 / 00:00
    Outros vídeos desta música
    Repetir Calidad Automático
    Outros vídeos desta música
    00:00 / 00:00
    Automático
    OK