Cifra Club

Poetically Pathetic

Amber Pacific

Cifrado: Principal (guitarra y guitarra eléctrica)
tono: Db
Tabbed: By I-Z

the second guitar part on the chorus it probobly wrong so you don't have to play it if 
want because it sounds fine without it


Tuning: Drop D

Intro

Guitar 1
E|-------------------------------------------------------------------|
B|--6-9-6-----6-9-6-----6-9-6-----6-9-6-9----------------------------|
G|-6---------6---------6---------6-----------------------------------|
D|-------------------------------------------------------------------|
A|-------------------------------------------------------------------|
D|-------------------------------------------------------------------|
Guitar 2
E|-------------------------------------------------------------------|
B|-------------------------------------------------------------------|
G|--------------------------5-5-5-5----------------------------------|
D|8-8-8-8--6-6-6-6--4-4-4-4-x-x-x-x----------------------------------|
A|8-8-8-8--6-6-6-6--4-4-4-4-3-3-3-3----------------------------------|
D|8-8-8-8--6-6-6-6--4-4-4-4------------------------------------------|
Guitar 2
E|-------------------------------------------------------------------|
B|-------------------------------------------------------------------|
G|---------------------------55555555-6------------------------------|
D|88888888-66666666-44444444-xxxxxxxx-x------------------------------|
A|88888888-66666666-44444444-33333333-4------------------------------|
D|88888888-66666666-44444444-----------------------------------------|
  ******** ******** ******** ********

Verse
You have to listen to the song to get the strumming pattern and the chord changes.

 Guitar 1
E|-------------------------------------------------------------------|
B|-------------------------------------------------------------------|
G|--6----10----8----6----10----8----6--------------------------------|
D|--x----x-----x----x----x-----x----x--------------------------------|
A|--4----8-----6----4----8-----6----4--------------------------------|
D|-------------------------------------------------------------------|

Verse
Guitar 2

With a k
E|-------------------------------------------------------------------|
B|-------------------------------------------------------------------|
G|-------------------------------------------------------------------|
D|--4----8-----6----4------------------------------------------------|
A|--4----8-----6----4------------------------------------------------|
D|--4----8-----6----4------------------------------------------------|


Chorus
Guitar 1


 “If time could stop"
E|-------------------|-----------------------------------------------|
B|-------------------|-----------------------------------------------|
G|-------------------|-6-8-10-8-6-10----8----8----8----8--6-10-8-10--|
D|---4--444----------|-x-x-x--x-x-x--66-x-66-x-66-x-66-x--x--x-x--x--|
A|---4--444----------|-4-6-8--6-4-8--66-6-66-6-66-6-66-6--4--8-6--8--|
D|---4--444----------|---------------66---66---66---66---------------|
        ***                          **   **   **   **

E|-------------------------------------------------------------------|
B|-------------------------------------------------------------------|
G|-6--10--8---6-9-6---6-9-6--6--10--8--10--6-------------------------|
D|-x--x---x---------6--------x--x---x--x---x-------------------------|
A|-4--8---6------------------4--8---6--8---4-------------------------|
D|-------------------------------------------------------------------|

      one for you   for    you
E|-------------------------------------------------------------------|
B|-------------------------------------------------------------------|
G|-----8---6---5------------6----------------------------------------|
D|-----x---x---x-------444--x----------------------------------------|
A|-----6---4---3-------444--4----------------------------------------|
D|---------------------444-------------------------------------------|

Chorus Guitar 2
play 1 then 2 and 3 together then play 2 until he says "one"

              1              "said"         2                 3
E|---------------------------------|------------------|--------------|
B|---------------------------------|------------------|--------------|
G|---------------------------------|------------------|--------------|
D|-----4---6---8---6---4---8---6---|4---8---6---8---4-|-8---6--------|
A|-----4---6---8---6---4---8---6---|4---8---6---8---4-|-8---6--------|
D|-----4---6---8---6---4---8---6---|4---8---6---8---4-|-8---6--------|

2nd verse same as first


Chorus 2

Guitar 1
E|-------------------|-----------------------------------------------|
B|-------------------|-----------------------------------------------|
G|-------------------|-6-8-10-8-6-10----8----8----8----8--6-10-8-10--|
D|---4--444----------|-x-x-x--x-x-x--66-x-66-x-66-x-66-x--x--x-x--x--|
A|---4--444----------|-4-6-8--6-4-8--66-6-66-6-66-6-66-6--4--8-6--8--|
D|---4--444----------|---------------66---66---66---66---------------|
        ***                          **   **   **   **

E|-------------------------------------------------------------------|
B|-------------------------------------------------------------------|
G|-6--10--8---6-9-6---6-9-6--6--10--8--10--6-------------------------|
D|-x--x---x---------6--------x--x---x--x---x-------------------------|
A|-4--8---6------------------4--8---6--8---4-------------------------|
D|-------------------------------------------------------------------|

      one for you
E|-------------------------------------------------------------------|
B|-------------------------------------------------------------------|
G|-----8---6---5-----------------------------------------------------|
D|-----x---x---x-----------------------------------------------------|
A|-----6---4---3-----------------------------------------------------|
D|-------------------------------------------------------------------|

Chorus 2
Guitar 2

              1              "said"         2                 3
E|---------------------------------|------------------|--------------|
B|---------------------------------|------------------|--------------|
G|---------------------------------|------------------|--------------|
D|-----4---6---8---6---4---8---6---|4---8---6---8---4-|-8---6--------|
A|-----4---6---8---6---4---8---6---|4---8---6---8---4-|-8---6--------|
D|-----4---6---8---6---4---8---6---|4---8---6---8---4-|-8---6--------|

Bridge


E|-------------------------------------------------------------------|
B|-------------------------------------------------------------------|
G|-------------------------------------------------------------------|
D|-8-8---6-6---4444-66666666--8-8---6-6---4444-----------------------|
A|-8-8---6-6---4444-66666666--8-8---6-6---4444-----------------------|
D|-8-8---6-6---4444-66666666--8-8---6-6---4444-----------------------|

Guitar 1
E|-------------------------------------------------------------------|
B|--6-9-6-----6-9-6-----6-9-6-----6-9-6-9----------------------------|
G|-6---------6---------6---------6-----------------------------------|
D|-------------------------------------------------------------------|
A|-------------------------------------------------------------------|
D|-------------------------------------------------------------------|

Guitar 2
E|-------------------------------------------------------------------|
B|-------------------------------------------------------------------|
G|--------------------------5-5-5-5----------------------------------|
D|8-8-8-8--6-6-6-6--4-4-4-4-x-x-x-x----------------------------------|
A|8-8-8-8--6-6-6-6--4-4-4-4-3-3-3-3----------------------------------|
D|8-8-8-8--6-6-6-6--4-4-4-4------------------------------------------|
Guitar 2
E|-------------------------------------------------------------------|
B|-------------------------------------------------------------------|
G|-------------------------------------------------------------------|
D|88888888-66666666-|44444444----------------------------------------|
A|88888888-66666666-|44444444-x3-------------------------------------|
D|88888888-66666666-|44444444----------------------------------------|
  ******** ********  ********


Guitar 1

For you and I. This part is kind of hard to hear you have to listen to the song.
E|-------------------------------------------------------------------|
B|---6-9-6---9999----------------------------------------------------|
G|--6--------6666----------------------------------------------------|
D|-------------------------------------------------------------------|
A|-------------------------------------------------------------------|
D|-------------------------------------------------------------------|

Chorus 3 x2

This is played throughout the chorus the second time threw

E|-------------------------------------------------------------------|
B|--6-9-6---6-9-6----------------------------------------------------|
G|-6------6----------------------------------------------------------|
D|-------------------------------------------------------------------|
A|-------------------------------------------------------------------|
D|-------------------------------------------------------------------|
Guitar 1
 You bring me out
E|-------------------------------------------------------------------|
B|-------------------------------------------------------------------|
G|-------------6----10----8---10-------------------------------------|
D|-------------x-----x----x----x-------------------------------------|
A|-------------4-----8----6—---8-------------------------------------|
D|-------------------------------------------------------------------|

E|-------------------------------------------------------------------|
B|-------------------------------------------------------------------|
G|-6--10--8---6-9-6---6-9-6--6--10--8--10--6-------------------------|
D|-x--x---x---------6--------x--x---x--x---x-------------------------|
A|-4--8---6------------------4--8---6--8---4-------------------------|
D|-------------------------------------------------------------------|

3rd Chorus
Guitar 2 little different
you don't play 1 at all you start on 2 and 3 together than just 2 than
2 and 3 again than 2 once more than your done!


              1              "said"         2                 3
E|---------------------------------|------------------|--------------|
B|---------------------------------|------------------|--------------|
G|---------------------------------|------------------|--------------|
D|-----4---6---8---6---4---8---6---|4---8---6---8---4-|-8---6--------|
A|-----4---6---8---6---4---8---6---|4---8---6---8---4-|-8---6--------|
D|-----4---6---8---6---4---8---6---|4---8---6---8---4-|-8---6--------|

                  | Guitar 1/2 end with this
                  |
                  | End with this
      one for you |   one for you for you
E|----------------|---------------------------------------------------|
B|----------------|---------------------------------------------------|
G|-----8---6---5--|--8----6-----------6-------------------------------|
D|-----x---x---x--|--x----x---44-44---x-------------------------------|
A|-----6---4---3--|--6----4---44-44---4-------------------------------|
D|----------------|-----------44-44-----------------------------------|
                              ** **
*=Palm mute
Compositor não encontrado.
36 vistas
    • ½ Tono
    • A
    • Bb
    • B
    • C
    • Db
    • D
    • Eb
    • E
    • F
    • F#
    • G
    • Ab
  • Agregar a la lista

    0 comentarios

    Ver todos los comentarios

    ¿Lograste tocar?

    0 Tocaron 0 Aún no

    ¡Graba un video tocando Poetically Pathetic y envíanoslo!

    00:00 / 00:00
    Outros vídeos desta música
    Repetir Calidad Automático
    Outros vídeos desta música
    00:00 / 00:00
    Automático
    OK