Cifra Club

Yoga Means Union

Ambulance Ltd

Cifrado: Principal (guitarra y guitarra eléctrica)
Selo Cifra Club: esta cifra foi revisada para atender aos critérios oficiais da nossa Equipe de Qualidade.
tono: Dm
E|--------------------------------------------------------------------------|
B|--------------------------------------------------------------------------|
G|---0---1---3---1---0---1---3---1---0---1---3---1---0---1---3---1----------|
D|----0---0---0---0---0---0---0---0---0---0---0---0---0---0---0---0---------|
A|--------------------------------------------------------------------------|
E|--------------------------------------------------------------------------|

Second Guitar comes in after first time, play twice (same tuning)
E|--------------------------------------------------------------------------|
B|--------------------------------------------------------------------------|
G|--------------------------------------------------------------------------|
D|---0---2---/5---4---0---2---/5---4---0---2---/5---4---0---2---/5---4------|
A|--------------------------------------------------------------------------|
E|--------------------------------------------------------------------------|

second guitar plays this after a while
E|--------------------------------------------------------------------------|
B|--------------------------------------------------------------------------|
G|---6-----------------5----------------3-----------------------------------|
D|--------------------------------------------------------------------------|
A|--------------------------------------------------------------------------|
E|--------------------------------------------------------------------------|
Otros videos de esta canción
    1 exhibiciones
      • ½ Tono
      • Am
      • Bbm
      • Bm
      • Cm
      • C#m
      • Dm
      • Ebm
      • Em
      • Fm
      • F#m
      • Gm
      • G#m
    • Agregar a la lista

    Afinação da cifra

    Afinador online

      Ops (: Contenido disponible solo en portugués.
      OK