Cifra Club

Te beso

Amen

Cifrado: Principal (guitarra y guitarra eléctrica)
tono: Em
Intro: G

    G          D      B      Em
Mi amor es más grande cada vez
      C         G
y aunque no estas aquí
C                G
te beso y en mi mente hoy
    G          D      B      Em
no puedo dejar de pensar en ti
   C      A
no puedo imaginar la vida
       D          D7            G
ahora si tú no estas aquí, solo sueño y...

*CORO*
C                G
Te beso en mi mente hoy
C                G
te beso en mi mente hoy
Cm          A      D
te beso en mi mente hoy
C                G
espero verte pronto.

    G          D    B        Em
Mírame, ya no puedo ni dormir
      C      G      C          G
me faltas y el tiempo solo me dice que no
     G       D      B      Em
Qué pasó, por qué te fuiste así
     C   A                        D          D7
Te extraño cuando en las mañanas despierto y tú no estas ahí
         G
solo sueño y...


*CORO*


Solo: D# - A# (x3) - A - D - C - G
E|----------------------------------------------------------------------18----------------|
B|-12/13-12/13-12/13-12/13-12/13-12/13-12/13-12/13-13/15--18/20.-18/20.----<20>-18----18--|
G|---------------------------------------------------------------------------------19-----|
D|----------------------------------------------------------------------------------------|
A|----------------------------------------------------------------------------------------|
E|----------------------------------------------------------------------------------------|

E|------------------20.-18.-20-----------------------------20/22-20/22-20/22.--|
B|-----------------------------<18>-15-18---------------18---------------------|
G|-19-17-15-<17>-15-----------------------<17>-15-17/19------------------------|
D|-----------------------------------------------------------------------------|
A|-----------------------------------------------------------------------------|
E|-----------------------------------------------------------------------------|

E|-| G-|
E|----17-18-17---------------------------------------------------------------x--|
B|-20----------20-<18>-15--------------------<11>-<11>-----------------------x--|
G|------------------------<17>-14-<15>-12--------------12.---7-7-7/5-5-5-4---4--|
D|-----------------------------------------------------------9-9-9/7-7-7-5---5--|
A|---------------------------------------------------------------------------5--|
E|---------------------------------------------------------------------------3--|


    G          D      B      Em
Mi amor es más grande cada vez
      C         G
y aunque no estas aquí
   Cm                G   C - G
te beso y en mi mente hoy.










E|--------|
          º-| ¤    ¤ |-º
          º-|  LuïS  |-º
          º-| ¤    ¤ |-º
                  /
              |    |
      ·===========================·
      ·===========================·
00:00 / 00:00
Otros videos de esta canción
Repetir
Otros videos de esta canción
Composición de Amen
61 exhibiciones
    • ½ Tono
    • Am
    • Bbm
    • Bm
    • Cm
    • C#m
    • Dm
    • Ebm
    • Em
    • Fm
    • F#m
    • Gm
    • G#m
  • Agregar a la lista
    00:00 / 00:00
    OK