Cifra Club

Come The Spring

Amorphis

Cifrado: Principal (guitarra y guitarra eléctrica)
Selo Cifra Club: esta cifra foi revisada para atender aos critérios oficiais da nossa Equipe de Qualidade.
tono: Fm
(0:00)
E|---------------------|-------------------------------------|
B|---------------------|-------------------------------------|
G|---------------------|-------------------------------------|
D|-6~---2~---2~--------|-6-6-6~---2-2-2~---2-2-2~------------|
A|-4~---0~---2~---4~---|-4-4-4~---0-0-0~---2-2-2~---4-4-4~---|
E|----------------2~---|----------------------------2-2-2~---|

E|---------------------|------------------------------|
B|---------------------|------------------------------|
G|---------------------|------------------------------|
D|------5~-------------|------5~--------7~------------|
A|-2~---3~---5~---7~---|-2~---3~---5~---5~----5-------|
E|-0~--------3~---5~---|-0~--------3~-----------8-7-5-|


[Verse]

(0:30)
E|--------------------------------------------------------|
B|--------------------------------------------------------|
G|--------------------------------------------------------|
D|--------------------------------------------------------|
A|-------------------33333333-----------------------------|
E|-0000000000000000------------3333333333333333--55555555-|
   ****************  ********  ****************  ********

E|--------------------------------------------------------|
B|--------------------------------------------------------|
G|--------------------------------------------------------|
D|--------------------------------------------------------|
A|-------------------33333333--------------------55555555-| x 2 (Verse repeats twice)
E|-0000000000000000------------3333333333333333-----------|
   ****************  ********  ****************  ********


[Chorus]

(1:00) *Note: 2nd time sounds like a galloping picking technique*
E|-----------------------|-----------------------------------|
B|-----------------------|-----------------------------------|
G|-----------------------|-----------------------------------|
D|------------2~------4~-|----------7~----------9~-----------|
A|-4~------2~-0~------2~-|-4~-------5~-7~-------7~---7-5-4---| x 2 (Chorus repeats twice)
E|-2~------0~------------|-2~----------5~------------------7-|


[Post-Chorus]

(1:30)
E|---------------------|------------------------------|
B|---------------------|------------------------------|
G|---------------------|------------------------------|
D|------5~-------------|------5~--------7~------------|
A|-2~---3~---5~---7~---|-2~---3~---5~---5~----5-------|
E|-0~--------3~---5~---|-0~--------3~-----------8-7-5-|


2nd Verse:

(1:45)
E|--------------------------------------------------------|
B|--------------------------------------------------------|
G|--------------------------------------------------------|
D|--------------------------------------------------------|
A|-------------------33333333-----------------------------|
E|-0000000000000000------------3333333333333333--55555555-|
   ****************  ********  ****************  ********

E|--------------------------------------------------------|
B|--------------------------------------------------------|
G|--------------------------------------------------------|
D|--------------------------------------------------------|
A|-------------------33333333--------------------55555555-| x 2 (Verse repeats twice)
E|-0000000000000000------------3333333333333333-----------|
   ****************  ********  ****************  ********


[Chorus]

(2:15) *Note: 2nd time sounds like a galloping picking technique*
E|-----------------------|-----------------------------------|
B|-----------------------|-----------------------------------|
G|-----------------------|-----------------------------------|
D|------------2~------4~-|----------7~----------9~-----------|
A|-4~------2~-0~------2~-|-4~-------5~-7~-------7~---7-5-4---| x 2 (Chorus repeats twice)
E|-2~------0~------------|-2~----------5~------------------7-|


[Outro]

(2:45)
E|---------------------|---------------------|
B|---------------------|---------------------|
G|---------------------|---------------------|
D|-----------6~---8~---|-----------6~--------|
A|-8~---4~---4~---6~---|-8~---4~---4~---6~---|
E|-6~---2--------------|-6~---2~--------4~---|

(3:00)
E|---------------------|-----------------------------------------------------|
B|---------------------|-----------------------------------------------------|
G|---------------------|-----------------------------------------------------|
D|-----------6~---8~---|-------------------6-6-6~------------6---------------|
A|-8~---4~---4~---6~---|-8-8-8~---4-4-4~---4-4-4~---6-6-6~-----9-8-6~---8~---|
E|-6~---2--------------|-6-6-6~---2-2-2~------------4-4-4~--------------6~---|
Otros videos de esta canción
    5 exhibiciones
      • ½ Tono
      • Am
      • Bbm
      • Bm
      • Cm
      • C#m
      • Dm
      • Ebm
      • Em
      • Fm
      • F#m
      • Gm
      • G#m
    • Agregar a la lista

    Afinação da cifra

    Afinador online

      Ops (: Contenido disponible solo en portugués.
      OK