Cifra Club

Dark Path

Amorphis

Cifrado: Principal (guitarra y guitarra eléctrica)
Selo Cifra Club: esta cifra foi revisada para atender aos critérios oficiais da nossa Equipe de Qualidade.
tono: G
Intro:                  

Piano Intro (0:00)

(0:14)
E|-----------------|-----------------|-----------------|-----------------|
B|-----------------|-----------------|-----------------|-----------------|
G|-----------------|-----------------|-----------------|-----------------|
D|-9-9-9-9-9-9-9-9-|-7-7-7-7-7-7-7-7-|-----------------|-----------------|
G|-7-7-7-7-7-7-7-7-|-5-5-5-5-5-5-5-5-|-7-7-7-7-7-7-7-7-|-7-7-7-7-7-7-7-7-|
D|-----------------|-----------------|-5-5-5-5-5-5-5-5-|-5-5-5-5-5-5-5-5-|

E|-----------------|-----------------|-----------------|-----------------|
B|-----------------|-----------------|-----------------|-----------------|
G|-----------------|-----------------|-----------------|-----------------|
D|-9-9-9-9-9-9-9-9-|-7-7-7-7-7-7-7-7-|-----------------|-----------------|
G|-7-7-7-7-7-7-7-7-|-5-5-5-5-5-5-5-5-|-7-7-7-7-7-7-7-7-|-7-7-7-7-7-7-7-7-|
D|-----------------|-----------------|-5-5-5-5-5-5-5-5-|-5-5-5-5-5-5-5-5-|

(0:29)
E|-----------------|-----------------|-----------------|-----------------|
B|-----------------|-----------------|-----------------|-----------------|
G|-----------------|-----------------|-----------------|-----------------|
C|-9-9-9-9-9-9-9-9-|-7-7-7-7-7-7-7-7-|-5-5-5-5-5-5-5-5-|-4-4-4-4-4-4-4-4-|
G|-7-7-7-7-7-7-7-7-|-5-5-5-5-5-5-5-5-|-3-3-3-3-3-3-3-3-|-2-2-2-2-2-2-2-2-|
D|-----------------|-----------------|-----------------|-----------------|

(0:36)
E|-----------------|-----------------|--------------------------------|
B|-----------------|-----------------|--------------------------------|
G|-----------------|-----------------|--------------------------------|
D|-5-5-5-5-5-5-5-5-|-7-7-7-7-7-7-7-7-|-9----9----9---9----9----9----9-|
G|-3-3-3-3-3-3-3-3-|-5-5-5-5-5-5-5-5-|-7-77-7-77-7-7-7-77-7-77-7-77-7-|
D|-----------------|-----------------|--------------------------------|
                                         **   **   *   **   **   **


Verse:

(0:43)
E|----------|---------|----------|---------|----------|---------|------------------|
B|----------|---------|----------|---------|----------|---------|------------------|
G|-9--9--9--|-9-9-9-9-|-9--9--9--|-9-9-9-9-|-9--9--9--|-9-9-9-9-|------------------|
D|-10-10-10-|-9-9-9-9-|-10-10-10-|-9-9-9-9-|-10-10-10-|-9-9-9-9-|-7----7----7----7-|
A|-7--7--7--|-7-7-7-7-|-7--7--7--|-7-7-7-7-|-7--7--7--|-7-7-7-7-|-5-55-5-55-5-55-5-| x 4
E|----------|---------|----------|---------|----------|---------|------------------|
                                                                    **   **   **


Chorus:

(1:12)
E|-----------------|-----------------|-----------------|-----------------|
B|-----------------|-----------------|-----------------|-----------------|
G|-----------------|-----------------|-----------------|-----------------|
D|-9-9-9-9-9-9-9-9-|-7-7-7-7-7-7-7-7-|-----------------|-----------------|
G|-7-7-7-7-7-7-7-7-|-5-5-5-5-5-5-5-5-|-7-7-7-7-7-7-7-7-|-7-7-7-7-7-7-7-7-|
D|-----------------|-----------------|-5-5-5-5-5-5-5-5-|-5-5-5-5-5-5-5-5-|

E|-----------------|-----------------|-----------------|-----------------|
B|-----------------|-----------------|-----------------|-----------------|
G|-----------------|-----------------|-----------------|-----------------|
D|-9-9-9-9-9-9-9-9-|-7-7-7-7-7-7-7-7-|-----------------|-----------------|
G|-7-7-7-7-7-7-7-7-|-5-5-5-5-5-5-5-5-|-7-7-7-7-7-7-7-7-|----7-7-----7-7--|
D|-----------------|-----------------|-5-5-5-5-5-5-5-5-|-55-5-5--55-5-5--|
                                                         **      **

E|-----------------|-----------------|-----------------|-----------------|
B|-----------------|-----------------|-----------------|-----------------|
G|-----------------|-----------------|-----------------|-----------------|
C|-9-9-9-9-9-9-9-9-|-7-7-7-7-7-7-7-7-|-5-5-5-5-5-5-5-5-|-4-4-4-4-4-4-4-4-|
G|-7-7-7-7-7-7-7-7-|-5-5-5-5-5-5-5-5-|-3-3-3-3-3-3-3-3-|-2-2-2-2-2-2-2-2-|
D|-----------------|-----------------|-----------------|-----------------|

E|-----------------|-----------------|--------------------------------|
B|-----------------|-----------------|--------------------------------|
G|-----------------|-----------------|--------------------------------|
D|-5-5-5-5-5-5-5-5-|-7-7-7-7-7-7-7-7-|-9----9----9---9----9----9----9-|
G|-3-3-3-3-3-3-3-3-|-5-5-5-5-5-5-5-5-|-7-77-7-77-7-7-7-77-7-77-7-77-7-|
D|-----------------|-----------------|--------------------------------|
                                         **   **   *   **   **   **


(1:44)
E|---------------------------------|
B|---------------------------------|
G|---------------------------------|
D|----------------------------7~---|
A|----------------------------5~---|
E|-\\\\--(p| ick scraps down)--------|


2nd Verse:

(1:47)
E|----------|---------|----------|---------|----------|---------|------------------|
B|----------|---------|----------|---------|----------|---------|------------------|
G|-9--9--9--|-9-9-9-9-|-9--9--9--|-9-9-9-9-|-9--9--9--|-9-9-9-9-|------------------|
D|-10-10-10-|-9-9-9-9-|-10-10-10-|-9-9-9-9-|-10-10-10-|-9-9-9-9-|-7----7----7----7-|
A|-7--7--7--|-7-7-7-7-|-7--7--7--|-7-7-7-7-|-7--7--7--|-7-7-7-7-|-5-55-5-55-5-55-5-| x 4
E|----------|---------|----------|---------|----------|---------|------------------|
                                                                    **   **   **


Chorus:

(2:16)
E|-----------------|-----------------|-----------------|-----------------|
B|-----------------|-----------------|-----------------|-----------------|
G|-----------------|-----------------|-----------------|-----------------|
D|-9-9-9-9-9-9-9-9-|-7-7-7-7-7-7-7-7-|-----------------|-----------------|
G|-7-7-7-7-7-7-7-7-|-5-5-5-5-5-5-5-5-|-7-7-7-7-7-7-7-7-|-7-7-7-7-7-7-7-7-|
D|-----------------|-----------------|-5-5-5-5-5-5-5-5-|-5-5-5-5-5-5-5-5-|

E|-----------------|-----------------|-----------------|-----------------|
B|-----------------|-----------------|-----------------|-----------------|
G|-----------------|-----------------|-----------------|-----------------|
D|-9-9-9-9-9-9-9-9-|-7-7-7-7-7-7-7-7-|-----------------|-----------------|
G|-7-7-7-7-7-7-7-7-|-5-5-5-5-5-5-5-5-|-7-7-7-7-7-7-7-7-|----7-7-----7-7--|
D|-----------------|-----------------|-5-5-5-5-5-5-5-5-|-55-5-5--55-5-5--|
                                                         **      **

E|-----------------|-----------------|-----------------|-----------------|
B|-----------------|-----------------|-----------------|-----------------|
G|-----------------|-----------------|-----------------|-----------------|
C|-9-9-9-9-9-9-9-9-|-7-7-7-7-7-7-7-7-|-5-5-5-5-5-5-5-5-|-4-4-4-4-4-4-4-4-|
G|-7-7-7-7-7-7-7-7-|-5-5-5-5-5-5-5-5-|-3-3-3-3-3-3-3-3-|-2-2-2-2-2-2-2-2-|
D|-----------------|-----------------|-----------------|-----------------|

E|-----------------|-----------------|--------------------------------|
B|-----------------|-----------------|--------------------------------|
G|-----------------|-----------------|--------------------------------|
D|-5-5-5-5-5-5-5-5-|-7-7-7-7-7-7-7-7-|-9----9----9---9----9----9----9-|
G|-3-3-3-3-3-3-3-3-|-5-5-5-5-5-5-5-5-|-7-77-7-77-7-7-7-77-7-77-7-77-7-|
D|-----------------|-----------------|--------------------------------|
                                         **   **   *   **   **   **


Interlude/Bridge:

(2:45)
E|-----------------19--17-19-| D|-----------------19-|
B|-17p0-19p0-20p0------------| A|-17p0-19p0-20p0-----|
G|---------------------------| F|--------------------|
D|---------------------------| C|--------------------|
A|---------------------------| x 23        G|--------------------|
E|---------------------------| D|--------------------|


Solo (Clean):

(3:34)                      (3:41)
E|--------------------------|-9-11-11b~------------------------------------|
B|-4h5p4-3v~---5p4/7-h9v~---|------------12~--11h12p12-9~------------------|
G|--------------------------|------------------------------11~---9\8/9v~---|
D|--------------------------|----------------------------------------------|
A|--------------------------|----------------------------------------------|
E|--------------------------|----------------------------------------------|

(3:48)                  (3:51)
E|---------------------|------------------|
B|-4h5p4---------------|-4bv~---5-7/9v~---|
G|-------6-4---4-6v~---|------------------|
D|-----------6---------|------------------|
A|---------------------|------------------|
E|---------------------|------------------|


Chorus:

(4:11)
E|-----------------|-----------------|-----------------|-----------------|
B|-----------------|-----------------|-----------------|-----------------|
G|-----------------|-----------------|-----------------|-----------------|
D|-9-9-9-9-9-9-9-9-|-7-7-7-7-7-7-7-7-|-----------------|-----------------|
G|-7-7-7-7-7-7-7-7-|-5-5-5-5-5-5-5-5-|-7-7-7-7-7-7-7-7-|-7-7-7-7-7-7-7-7-|
D|-----------------|-----------------|-5-5-5-5-5-5-5-5-|-5-5-5-5-5-5-5-5-|

E|-----------------|-----------------|-----------------|-----------------|
B|-----------------|-----------------|-----------------|-----------------|
G|-----------------|-----------------|-----------------|-----------------|
D|-9-9-9-9-9-9-9-9-|-7-7-7-7-7-7-7-7-|-----------------|-----------------|
G|-7-7-7-7-7-7-7-7-|-5-5-5-5-5-5-5-5-|-7-7-7-7-7-7-7-7-|----7-7-----7-7--|
D|-----------------|-----------------|-5-5-5-5-5-5-5-5-|-55-5-5--55-5-5--|
                                                         **      **

E|-----------------|-----------------|-----------------|-----------------|
B|-----------------|-----------------|-----------------|-----------------|
G|-----------------|-----------------|-----------------|-----------------|
C|-9-9-9-9-9-9-9-9-|-7-7-7-7-7-7-7-7-|-5-5-5-5-5-5-5-5-|-4-4-4-4-4-4-4-4-|
G|-7-7-7-7-7-7-7-7-|-5-5-5-5-5-5-5-5-|-3-3-3-3-3-3-3-3-|-2-2-2-2-2-2-2-2-|
D|-----------------|-----------------|-----------------|-----------------|

E|-----------------|-----------------|
B|-----------------|-----------------|
G|-----------------|-----------------|
C|-5-5-5-5-5-5-5-5-|-7-7-7-7-7-7-7-7-|
G|-3-3-3-3-3-3-3-3-|-5-5-5-5-5-5-5-5-|
D|-----------------|-----------------|

(4:36)
E|-----------------|-----------------|-----------------|-----------------|
B|-----------------|-----------------|-----------------|-----------------|
G|-----------------|-----------------|-----------------|-----------------|
D|-9-9-9-9-9-9-9-9-|-7-7-7-7-7-7-7-7-|-----------------|-----------------|
G|-7-7-7-7-7-7-7-7-|-5-5-5-5-5-5-5-5-|-7-7-7-7-7-7-7-7-|----7-7-----7-7--|
D|-----------------|-----------------|-5-5-5-5-5-5-5-5-|-55-5-5--55-5-5--|
                                                         **      **

E|-----------------|-----------------|-----------------|-----------------|
B|-----------------|-----------------|-----------------|-----------------|
G|-----------------|-----------------|-----------------|-----------------|
D|-9-9-9-9-9-9-9-9-|-7-7-7-7-7-7-7-7-|-----------------|-----------------|
G|-7-7-7-7-7-7-7-7-|-5-5-5-5-5-5-5-5-|-7-7-7-7-7-7-7-7-|----7-7-----7-7--|
D|-----------------|-----------------|-5-5-5-5-5-5-5-5-|-55-5-5--55-5-5--|
                                                         **      **

E|-----------------|-----------------|-----------------|-----------------|
B|-----------------|-----------------|-----------------|-----------------|
G|-----------------|-----------------|-----------------|-----------------|
C|-9-9-9-9-9-9-9-9-|-7-7-7-7-7-7-7-7-|-5-5-5-5-5-5-5-5-|-4-4-4-4-4-4-4-4-|
G|-7-7-7-7-7-7-7-7-|-5-5-5-5-5-5-5-5-|-3-3-3-3-3-3-3-3-|-2-2-2-2-2-2-2-2-|
D|-----------------|-----------------|-----------------|-----------------|

E|-----------------|-----------------|-----------------------------------|
B|-----------------|-----------------|-----------------------------------|
G|-----------------|-----------------|-----------------------------------|
D|-5-5-5-5-5-5-5-5-|-7-7-7-7-7-7-7-7-|-9----9----9---9----9----9----9\---|
A|-3-3-3-3-3-3-3-3-|-5-5-5-5-5-5-5-5-|-7-77-7-77-7-7-7-77-7-77-7-77-7\---|
E|-----------------|-----------------|-----------------------------------|
                                         **   **   *   **   **   **


-END-

Legend:

*  =  Palm Mutes
~  =  Let note ring
\  =  Slide down
/  =  Slide up
h  =  Hammer-ons
p  =  Pull-offs
v  =  Vibrato
Otros videos de esta canción
    6 exhibiciones
      • ½ Tono
      • A
      • Bb
      • B
      • C
      • Db
      • D
      • Eb
      • E
      • F
      • F#
      • G
      • Ab
    • Agregar a la lista

    Afinação da cifra

    Afinador online

      Ops (: Contenido disponible solo en portugués.
      OK