Cifra Club

In The Beginning

Amorphis

Cifrado: Principal (guitarra y guitarra eléctrica)
Selo Cifra Club: esta cifra foi revisada para atender aos critérios oficiais da nossa Equipe de Qualidade.
tono: E
Legend:
-------
b bend
r release
/ slide up

intro 
|-----------------|-----------------|------------------|------------------|
|-----------------|-----------------|------------------|------------------|
|-----------------|-----------------|------------------|------------------|
|-----------------|-----------------|------------------|------------------|
|--5--3-1-0-1-0---|--5--3-1-0-1-0---|--6--5-6-8-6-5----|------------------|
|--------------3--|--------------3--|---------------8--|--6--5-6-8-6-5-3--|


0:34 Riff A 

|----------------------------------|
|-/9-------------------------------|
|-----11-9-8---8b9r8---------------|
|----------------------11-9-11-----|
|----------------------------------|
|----------------------------------|


1:06 Riff B
|--------------------------------------------------|
|--------------------------------------------------|
|--9-888-6----9-888-6---11-999-8------------8--9---|
|------------------------------------9--11---------|
|--------------------------------------------------|
|--------------------------------------------------|

|---------------------------------------------------|
|---------------------------------------------------|
|---9-888-6----9-888-6----------------8----8-8-9----|
|----------------------------11-10-11---11----------|
|---------------------------------------------------|
|---------------------------------------------------|


2:04 Riff C
|-----------------------|
|-----------------------|
|-----------------------|
|-11-11--10-10-8-8------|
|------------------11---|
|-----------------------|

outro organ riff 
|------------------------|------------------------|------------------------|
|------------------------|------------------------|------------------------|
|------------------------|------------------------|------------------------|
|----11---6-8-9--8-9-11--|----11---6-8-9--8-9-11--|----11---6-8-9--8-9-11--|
|------------------------|------------------------|------------------------|
|--9---------------------|--9---------------------|--9---------------------|


|------------------------|
|------------------------|
|------------------------|
|----11--6-8-9-----------|
|---------------9--7-----|
|--9---------------------|
Otros videos de esta canción
    32 exhibiciones
      • ½ Tono
      • A
      • Bb
      • B
      • C
      • Db
      • D
      • Eb
      • E
      • F
      • F#
      • G
      • Ab
    • Agregar a la lista

    Afinação da cifra

    Afinador online

      Ops (: Contenido disponible solo en portugués.
      OK