Cifra Club

On A Stranded Shore

Amorphis

Cifrado: Principal (guitarra y guitarra eléctrica)
Selo Cifra Club: esta cifra foi revisada para atender aos critérios oficiais da nossa Equipe de Qualidade.
tono: G
(0:00)
E|-15-14-12-----14--12----------------------------------|
B|----------15~---------12--12-13-12--------------------|
G|-----------------------------------14-12--11/12\11----|
D|---------------------------------------------------14-|
A|------------------------------------------------------|
E|------------------------------------------------------|

E|-15-14-12-----14----------------------------------------------------|
B|----------15~-----15-13-12------------13-12----13~-12~--------------|
G|---------------------------14~--12-14-------14---------11-12-14v~---|
D|--------------------------------------------------------------------|
A|--------------------------------------------------------------------| x 3
E|--------------------------------------------------------------------|


[Verse]:

(0:40)       (0:53)
E|----------|--------------|
B|----------|--------------|
G|----------|--------------|
D|----------|-7-7~-------7-|
A|-2~-------|-5-5~-------5-|
E|-0~-------|-------5-5----|
                    * *

Riff A (0:55)
E|---------------------------|-----------------------------|-----------------|
B|---------------------------|-----------------------------|-----------------|
G|---------------------------|-----------------------------|-----------------|
D|-9---9---9-9---9---9\7/9\7-|-----9---9---9---------------|-----------------|
A|-7---7---7-7---7---7\5/7\5-|-----7---7---7-----------777-|-7-7-7-7-7-7-7-7-|
E|---0---0-----0---0---------|-0-0---0---0---0-5-0-5-0-555-|-5-5-5-5-5-5-5-5-|
     *   *     *   *           * *   *   *   * * * * *       * * * * * * * *

E|-----------------|-----------------|-----------------|-------|
B|-----------------|-----------------|-----------------|-------|
G|-----------------|-----------------|-----------------|-------|
C|-5-5-5-5-5-5-5-5-|-2-2-2-2-2-2-2-2-|-7-7-7-7-7-7-7-7-|-7-7-7-|
G|-3-3-3-3-3-3-3-3-|-0-0-0-0-0-0-0-0-|-5-5-5-5-5-5-5-5-|-5-5-5-|
D|-----------------|-----------------|-----------------|-------|
   * * * * * * * *   * * * * * * * *   * * * * * * * *

E|---------------------------|-----------------------------|-----------------|----------------|
B|---------------------------|-----------------------------|-----------------|----------------|
G|---------------------------|-----------------------------|-----------------|----------------|
D|-9---9---9-9---9---9\7/9\7-|-----9---9---9---------------|-----------------|-5~---2~---7~---|
A|-7---7---7-7---7---7\5/7\5-|-----7---7---7-----------777-|-7-7-7-7-7-7-7-7-|-3~---0~---5~---|
E|---0---0-----0---0---------|-0-0---0---0---0-5-0-5-0-555-|-5-5-5-5-5-5-5-5-|----------------|
     *   *     *   *           * *   *   *   * * * * *       * * * * * * * *


[Pre-Chorus]:

(1:25)
E|-----------------------------------------|
B|-----------------------------------------|
G|----------------9~-----------------------|
D|------7~---9~---9~---7~---5~---2~---7~---|
A|-5~---5~---7~--------5~---3~---0~---5~---|
E|-3~--------------------------------------|


[Chorus]:

(1:39)
E|-15-14-12-----14--12----------------------------------|
B|----------15~---------12--12-13-12--------------------|
G|-----------------------------------14-12--11/12\11----|
D|---------------------------------------------------14-|
A|------------------------------------------------------|
E|------------------------------------------------------|

E|-15-14-12-----14----------------------------------------------------|
B|----------15~-----15-13-12------------13-12----13~-12~--------------|
G|---------------------------14~--12-14-------14---------11-12-14v~---|
D|--------------------------------------------------------------------|
A|--------------------------------------------------------------------| x 2
E|--------------------------------------------------------------------|


2nd Verse               (2:06)          (Same as above starting with Riff A)
Pre-Chorus              (2:35)          (Same as above) x 2

(3:02)
E|--------------|
B|--------------|
G|-7--9--11--12-|
D|-x--x---x--x--|
A|-5--7---9--10-|
E|--------------|


[Solo]:

(3:05)
E|----------------------------------------------------------------------------|
B|-----------15---------------------------------------------------------------|
G|-12v~---12----14v~---12-11-11h12p11-----------------------------------------|
D|------------------------------------12h14p12--------------------------------|
A|---------------------------------------------12h14p12-10h12p10-9h10p9-7h9p7-|
E|----------------------------------------------------------------------------|

E|-----------------------------------------------------14h15~-14-14-----12~---|
B|-------7h8p7-----10---------7-8-7----------------------------------15~------|
G|---7-9-------9-7----9-7---7-------9bv~---7-7v~------------------------------|
D|-8----------------------9---------------------------------------------------|
A|----------------------------------------------------------------------------|
E|----------------------------------------------------------------------------|


[Chorus]:

(3:20)
E|-15-14-12-----14--12----------------------------------|
B|----------15~---------12--12-13-12--------------------|
G|-----------------------------------14-12--11/12\11----|
D|---------------------------------------------------14-|
A|------------------------------------------------------|
E|------------------------------------------------------|

E|-15-14-12-----14----------------------------------------------------|
B|----------15~-----15-13-12------------13-12----13~-12~--------------|
G|---------------------------14~--12-14-------14---------11-12-14v~---|
D|--------------------------------------------------------------------|
A|--------------------------------------------------------------------| x 2
E|--------------------------------------------------------------------|


[Outro]:

(3:46)
E|----------0~-------|
B|----------0~-------|
G|-------------------|
D|-------------------|
A|-2~----------------|
E|-0~----------------|


-END-

************************************

| h  Hammer-on
| p  Pull-off
| v  Vibrato
| ~  Let ring
| /  Slide up
| \  Slide down
| x  Dead note
Otros videos de esta canción
    4 exhibiciones
      • ½ Tono
      • A
      • Bb
      • B
      • C
      • Db
      • D
      • Eb
      • E
      • F
      • F#
      • G
      • Ab
    • Agregar a la lista

    Afinação da cifra

    Afinador online

      Ops (: Contenido disponible solo en portugués.
      OK