Cifra Club

Shaman

Amorphis

Cifrado: Principal (guitarra y guitarra eléctrica)
Selo Cifra Club: esta cifra foi revisada para atender aos critérios oficiais da nossa Equipe de Qualidade.
tono: F
INTRO

E|----------------------------|
B|-----------11---------------|
G|-7-9-10-12-----10-12-----7--| 2x
D|---------------------10-----|
A|----------------------------|
E|----------------------------|


E|----------------------------|
B|------10--------------------|
G|-10-9----12-10--9-7-----7---| 2x
D|--------------------10------|
A|----------------------------|
E|----------------------------|

RIFF

E|-----------------------------|
B|-----------11----------------|
G|-7-9-10-12-----10-12-9----7--|
D|-----------------------10----|
A|-----------------------------|
E|-----------------------------|

E|-----------------------------|
B|-----------------------------|
G|--------7-9-10--10-12-9---7--|
D|-8-8-10-----------------10---|
A|-----------------------------|
E|-----------------------------|
Otros videos de esta canción
    11 exhibiciones
      • ½ Tono
      • A
      • Bb
      • B
      • C
      • Db
      • D
      • Eb
      • E
      • F
      • F#
      • G
      • Ab
    • Agregar a la lista

    Afinação da cifra

    Afinador online

      Ops (: Contenido disponible solo en portugués.
      OK