Cifra Club

Stone Woman

Amorphis

Cifrado: Principal (guitarra y guitarra eléctrica)
Selo Cifra Club: esta cifra foi revisada para atender aos critérios oficiais da nossa Equipe de Qualidade.
tono: Dm
E|E|-------------------------------------------------------------------------------||
                             Stone Woman -by- Amorphis
E|E|-------------------------------------------------------------------------------||
Tabbed by: Jeff Cameron
11/11/2007 

Hey, this is my first tab, but I think it’s pretty decent. Enjoy.

(First Edit)

Tuning:  D G C F A D

Intro, X4:

Distortion
E|-----------------------------------|---------------------------------------|
B|-----------------------------------|---------------------------------------|
G|-----------------------------------|---------------------------------------|
D|----7---7---10---/14---12---10-----|--------9--12------7--10---------------|
A|----7---7---10---/14---12---10-----|----10----------8----------------------|
E|----5---5---8----/12---10---8------|---------------------------------------|

Verse 1a, X4:

Clean, strum
E|-----------------------------------|---------------------------------------|
B|-----------------------------------|----8--8--8--6--6--6--6--6-------------|
G|---7--7--7--7--7--7--7--7----------|----7--7--7--5--5--5--5--5-------------|
D|---7--7--7--7--7--7--7--7----------|----5--5--5--3--3--3--3--3-------------|
A|---5--5--5--5--5--5--5--5----------|----5--5--5--3--3--3--3--3-------------|
E|-----------------------------------|---------------------------------------|

Verse 1b, X4:

Guitar 1, distortion
     •  •  •  •  •  •  •  •               •  •  •  •  •  •  •  •
E|-----------------------------------|---------------------------------------|
B|-----------------------------------|---------------------------------------|
G|---7--7--7--7--7--7--7--7----------|---------------------------------------|
D|---7--7--7--7--7--7--7--7----------|----5--5--5--3--3--3--3--3-------------|
A|---5--5--5--5--5--5--5--5----------|----5--5--5--3--3--3--3--3-------------|
E|-----------------------------------|----3--3--3--1--1--1--1--1-------------|

Guitar 2, distortion, let ring
E|-----------------------------------|---------------------------------------|
B|-------15--------------------------|---------------------------------------|
G|-------------14~~~~~~~~~~~~~~~~~~~~| ~~~~~~~~~~~~~~~~~~~~~~~~~~~~~~~~~~~~~~~|
D|---0~~~~~~~~~~~~~~~~~~~~~~~~~~~~~~~| ~~~~~~~~~~~~~~~~~~~~~~~~~~~~~~~~~~~~~~~|
A|-----------------------------------|---------------------------------------|
E|-----------------------------------|---------------------------------------|

Chorus 1a:

Guitar 1, distortion
              •                                                              X4
E|-----------------------------------|---------------------------------------|
B|-----------------------------------|---------------------------------------|
G|----7---7---x----2-----------------|------0-------------3------------------|
D|----7---7---x----2-----------------|------2-------------3------------------|
A|----5---5---x----0-----------------|------3-------------1------------------|
E|-----------------------------------|---------------------------------------|

Guitar 2, distortion
E|-----------------------------------|---------------------------------------|
B|---------------10~~~~~~~~~~~~~~~~~~| ~~~~~~~~~~~~~~~~~~~~~~~~~~~~~~~~~~~~~~~|
G|-----7--7--10----------------------|---------------------------------------|
D|-----------------------------------|---------------------------------------|
A|-----------------------------------|---------------------------------------|
E|-----------------------------------|---------------------------------------|

E|-----------------------------------|---------------------------------------|
B|---------------10--8~~~~~~~~~~~~~~~| ~~~~~~~~~~~~~~~~~~~~~~~~~~~~~~~~~~~~~~~|
G|-----7--7--10----------------------|---------------------------------------|
D|-----------------------------------|---------------------------------------|
A|-----------------------------------|---------------------------------------|
E|-----------------------------------|---------------------------------------|

E|-----------------------------------|---------------------------------------|
B|---------------10~~~~~~~~~~~~~~~~~~| ~~~~~~~~~~~~~~~~~~~~~~~~~~~~~~~~~~~~~~~|
G|-----7--7--10----------------------|---------------------------------------|
D|-----------------------------------|---------------------------------------|
A|-----------------------------------|---------------------------------------|
E|-----------------------------------|---------------------------------------|

E|-----------------------------------|---------------------------------------|
B|---------------10--8~~~~~~---------|---/8----------------------------------|
G|-----7--7--10----------------------|--------10---9---7~~~~~~~~~~~~~--------|
D|-----------------------------------|---------------------------------------|
A|-----------------------------------|---------------------------------------|
E|-----------------------------------|---------------------------------------|

Chorus 1b, X4:

distortion
E|-----------------------------------|---------------------------------------|
B|-----------------------------------|---------------------------------------|
G|-----------------------------------|---------------------------------------|
D|----------3----/7----5----3--------|--------2----5----------------3--------|
A|---5--5----------------------------|----3--------------1----/5-------------|
E|-----------------------------------|---------------------------------------|

Verse 2a, X4:

Clean, strum
E|-----------------------------------|---------------------------------------|
B|-----------------------------------|----8--8--8--6--6--6--6--6-------------|
G|---7--7--7--7--7--7--7--7----------|----7--7--7--5--5--5--5--5-------------|
D|---7--7--7--7--7--7--7--7----------|----5--5--5--3--3--3--3--3-------------|
A|---5--5--5--5--5--5--5--5----------|----5--5--5--3--3--3--3--3-------------|
E|-----------------------------------|---------------------------------------|

Verse 2b:

Guitar 1, distortion
     •  •  •  •  •  •  •  •               •  •  •  •  •  •  •  •             X4
E|-----------------------------------|---------------------------------------|
B|-----------------------------------|---------------------------------------|
G|---7--7--7--7--7--7--7--7----------|---------------------------------------|
D|---7--7--7--7--7--7--7--7----------|----5--5--5--3--3--3--3--3-------------|
A|---5--5--5--5--5--5--5--5----------|----5--5--5--3--3--3--3--3-------------|
E|-----------------------------------|----3--3--3--1--1--1--1--1-------------|

Guitar 2, distortion
E|-----------------------------------|---------------------------------------|
B|----18--17--15---------------------|---------------------------------------|
G|-------------------14--------------|--------------16-----------------------|
D|-----------------------------15----|------/17------------------------------|
A|-----------------------------------|---------------------------------------|
E|-----------------------------------|---------------------------------------|

E|-----------------------------------|---------------------------------------|
B|-------15--------------------------|---------------------------------------|
G|-------------14~~~~~~~~~~~~~~~-----|---------------------------------------|
D|---0~~~~~~~~~~~~~~~~~~~~~~~~~~-----|--------------17----15-----------------|
A|-----------------------------------|------/17------------------------------|
E|-----------------------------------|---------------------------------------|

E|-----------------------------------|---------------------------------------|
B|----18--17--15---------------------|---------------------------------------|
G|-------------------14--------------|--------------16-----------------------|
D|-----------------------------15----|------/17-----------15-----------------|
A|-----------------------------------|---------------------------------------|
E|-----------------------------------|---------------------------------------|

E|-----------------------------------|---------------------------------------|
B|-----13--12--10--------------------|---------------------------------------|
G|----------------------10-----14----|-----12~~~~~~~~~~~~~~~~~~~~------------|
D|-----------------------------------|---------------------------------------|
A|-----------------------------------|---------------------------------------|
E|-----------------------------------|---------------------------------------|

Chorus 2:

Guitar 1, distortion
              •                                                              X4
E|-----------------------------------|---------------------------------------|
B|-----------------------------------|---------------------------------------|
G|----7---7---x----2-----------------|------0-------------3------------------|
D|----7---7---x----2-----------------|------2-------------3------------------|
A|----5---5---x----0-----------------|------3-------------1------------------|
E|-----------------------------------|---------------------------------------|

Guitar 2, distortion
E|-----------------------------------|---------------------------------------|
B|---------------10~~~~~~~~~~~~~~~~~~| ~~~~~~~~~~~~~~~~~~~~~~~~~~~~~~~~~~~~~~~|
G|-----7--7--10----------------------|---------------------------------------|
D|-----------------------------------|---------------------------------------|
A|-----------------------------------|---------------------------------------|
E|-----------------------------------|---------------------------------------|

E|-----------------------------------|---------------------------------------|
B|---------------10--8~~~~~~~~~~~~~~~| ~~~~~~~~~~~~~~~~~~~~~~~~~~~~~~~~~~~~~~~|
G|-----7--7--10----------------------|---------------------------------------|
D|-----------------------------------|---------------------------------------|
A|-----------------------------------|---------------------------------------|
E|-----------------------------------|---------------------------------------|

E|-----------------------------------|---------------------------------------|
B|---------------10~~~~~~~~~~~~~~~~~~| ~~~~~~~~~~~~~~~~~~~~~~~~~~~~~~~~~~~~~~~|
G|-----7--7--10----------------------|---------------------------------------|
D|-----------------------------------|---------------------------------------|
A|-----------------------------------|---------------------------------------|
E|-----------------------------------|---------------------------------------|

E|-----------------------------------|---------------------------------------|
B|---------------10--8~~~~~~---------|---/8----------------------------------|
G|-----7--7--10----------------------|--------10---9---7~~~~~~~~~~~~~--------|
D|-----------------------------------|---------------------------------------|
A|-----------------------------------|---------------------------------------|
E|-----------------------------------|---------------------------------------|

Bridge / Solo Section:

                                                     < > bend 1/2
E|-----------------------------------|---------------------------------------|
B|-----------------------------------|---------------------------------------|
G|-----------------------------------|---------------------------------------|
D|-----------------------------------|-------5---7----7-----5-----0----------|
A|----7------------------------------|--/7-----------------------------------|
E|--------0---0---------5-----7------|---------------------------------------|

First ending, X3:
                                                     < > bend 1/2
E|-----------------------------------|---------------------------------------|
B|-----------------------------------|---------------------------------------|
G|-----------------------------------|---------------------------------------|
D|-----------------------------------|-------5---7----5-----------0----------|
A|----7------------------------------|--/7-----------------------------------|
E|--------0---0---------5-----7------|---------------------------------------|

Second ending, X1:
                                        < > bend 1/2
E|-----------------------------------|---------------------------------------|
B|-----------------------------------|---------------------------------------|
G|-----------------------------------|---------------------------------------|
D|--------5---7---/9---7---5---------|---7---5---7----5----------------------|
A|----7------------------------------|------------------7--5-----------------|
E|-----------------------------------|--------------------------5----3-------|

Chorus 3a:

Guitar 1, distortion
              •                                                              X4
E|-----------------------------------|---------------------------------------|
B|-----------------------------------|---------------------------------------|
G|----7---7---x----2-----------------|------0-------------3------------------|
D|----7---7---x----2-----------------|------2-------------3------------------|
A|----5---5---x----0-----------------|------3-------------1------------------|
E|-----------------------------------|---------------------------------------|

Guitar 2, distortion
E|-----------------------------------|---------------------------------------|
B|---------------10~~~~~~~~~~~~~~~~~~| ~~~~~~~~~~~~~~~~~~~~~~~~~~~~~~~~~~~~~~~|
G|-----7--7--10----------------------|---------------------------------------|
D|-----------------------------------|---------------------------------------|
A|-----------------------------------|---------------------------------------|
E|-----------------------------------|---------------------------------------|

E|-----------------------------------|---------------------------------------|
B|---------------10--8~~~~~~~~~~~~~~~| ~~~~~~~~~~~~~~~~~~~~~~~~~~~~~~~~~~~~~~~|
G|-----7--7--10----------------------|---------------------------------------|
D|-----------------------------------|---------------------------------------|
A|-----------------------------------|---------------------------------------|
E|-----------------------------------|---------------------------------------|

E|-----------------------------------|---------------------------------------|
B|---------------10~~~~~~~~~~~~~~~~~~| ~~~~~~~~~~~~~~~~~~~~~~~~~~~~~~~~~~~~~~~|
G|-----7--7--10----------------------|---------------------------------------|
D|-----------------------------------|---------------------------------------|
A|-----------------------------------|---------------------------------------|
E|-----------------------------------|---------------------------------------|

E|-----------------------------------|---------------------------------------|
B|---------------10--8~~~~~~---------|---/8----------------------------------|
G|-----7--7--10----------------------|--------10---9---7~~~~~~~~~~~~~--------|
D|-----------------------------------|---------------------------------------|
A|-----------------------------------|---------------------------------------|
E|-----------------------------------|---------------------------------------|

Chorus 3b, X4:

distortion
E|-----------------------------------|---------------------------------------|
B|-----------------------------------|---------------------------------------|
G|-----------------------------------|---------------------------------------|
D|----------3----/7----5----3--------|--------2----5----------------3--------|
A|---5--5----------------------------|----3--------------1----/5-------------|
E|-----------------------------------|---------------------------------------|

Outro:

                            |~~~~~~~~~~~let ring~~~~~~~~~~~~~~~~~~~~~~~~~~~~~|
E|-----------------------------------|---------------------------------------|
B|-----------------------------------|---------------------------------------|
G|--------------------------7--------|---------------------------------------|
D|----------------2---------7--------|---------------------------------------|
A|----0----3----------------5--------|---------------------------------------|
E|-----------------------------------|---------------------------------------|

| •  palm mute
| /  slide up
| \  slide down
| h  hammer-on
| p  pull-off
| ~  vibrato and/or let ring
| +  harmonic
| x  Mute note
===============================================================================
Otros videos de esta canción
    1 exhibiciones
      • ½ Tono
      • Am
      • Bbm
      • Bm
      • Cm
      • C#m
      • Dm
      • Ebm
      • Em
      • Fm
      • F#m
      • Gm
      • G#m
    • Agregar a la lista

    Afinação da cifra

    Afinador online

      Ops (: Contenido disponible solo en portugués.
      OK