Cifra Club

Summers End

Amorphis

Cifrado: Principal (guitarra y guitarra eléctrica)
Selo Cifra Club: esta cifra foi revisada para atender aos critérios oficiais da nossa Equipe de Qualidade.
tono: C
Intro
E|----------------------|
B|-------------------6~-|
G|-5h7-7-7--5h7-5h7-----| 12 Times
D|----------------------|
A|----------------------|
E|----------------------|
12th Time Slide on G From 24 to 0


Body
  Tomi
E|-----------------------|-----------------------|-----------------------|-----------------------|
B|-----------------------|-----------------------|-----------------------|-----------------------|
G|5--5--5--5--5--5--5--5-| 5--5--5--5--5--5--5--5-|5--5--5--5--5--5--5--5-|5--5--5--5--5--5--5--5-|
D|5--5--5--5--5--5--5--5-| 5--5--5--5--5--5--5--5-|5--5--5--5--5--5--5--5-|5--5--5--5--5--5--5--5-|
A|3--3--3--3--3--3--3--3-| 3--3--3--3--3--3--3--3-|3--3--3--3--3--3--3--3-|3--3--3--3--3--3--3--3-|
E|-----------------------|-----------------------|-----------------------|-----------------------|
 | Esa                                                                                           |
E|-----------------------|-----------------------|-----------------------|-----------------------|
B|-----------------------|-----------------------|-----------------------|-----------------------|
G|10-10-10-10-8--8--7--7-| 5--5--5--5--5--5--5--5-|10-10-10-10-8--8--7--7-|5--5--5--5--5--5--5--5-|
D|10-10-10-10-8--8--7--7-| 5--5--5--5--5--5--5--5-|10-10-10-10-8--8--7--7-|5--5--5--5--5--5--5--5-|
A|8--8--8--8--6--6--5--5-| 3--3--3--3--3--3--3--3-|8--8--8--8--6--6--5--5-|3--3--3--3--3--3--3--3-|
E|-----------------------|-----------------------|-----------------------|-----------------------|


  Tomi
E|-----------------------|-----------------------|-----------------------|-----------------------|
B|-----------------------|-----------------------|-----------------------|-----------------------|
G|-----------------------|-----------------------|-----------------------|-----------------------|
D|6--6--6--6--6--6--6--6-| 6--6--6--6--6--6--6--6-|6--6--6--6--6--6--6--6-|6--6--6--6--6--6--6--6-|
A|6--6--6--6--6--6--6--6-| 6--6--6--6--6--6--6--6-|6--6--6--6--6--6--6--6-|6--6--6--6--6--6--6--6-|
E|4--4--4--4--4--4--4--4-| 4--4--4--4--4--4--4--4-|4--4--4--4--4--4--4--4-|4--4--4--4--4--4--4--4-|
 | Esa                                                                                           |
E|-----------------------|-----------------------|-----------------------|-----------------------|
B|-----------------------|-----------------------|-----------------------|-----------------------|
G|10-10-10-10-8--8--7--7-| 5--5--5--5--5--5--5--5-|10-10-10-10-8--8--7--7-|5--5--5--5--5--5--5--5-|
D|10-10-10-10-8--8--7--7-| 5--5--5--5--5--5--5--5-|10-10-10-10-8--8--7--7-|5--5--5--5--5--5--5--5-|
A|8--8--8--8--6--6--5--5-| 3--3--3--3--3--3--3--3-|8--8--8--8--6--6--5--5-|3--3--3--3--3--3--3--3-|
E|-----------------------|-----------------------|-----------------------|-----------------------|


  Tomi
E|-----------------------|-----------------------|-----------------------|-----------------------|
B|-----------------------|-----------------------|-----------------------|-----------------------|
G|-----------------------|-----------------------|-----------------------| 3--3--3--3--3--3--3--3-|
D|3--3--3--3--3--3--3--3-| 3--3--3--3--3--3--3--3-|3--3--3--3--3--3--3--3-|3--3--3--3--3--3--3--3-|
A|3--3--3--3--3--3--3--3-| 3--3--3--3--3--3--3--3-|3--3--3--3--3--3--3--3-|1--1--1--1--1--1--1--1-|
E|1--1--1--1--1--1--1--1-| 1--1--1--1--1--1--1--1-|1--1--1--1--1--1--1--1-|-----------------------|
 | Esa                                                                                           |
E|-----------------------|-----------------------|-----------------------|-----------------------|
B|-----------------------|-----------------------|-----------------------|-----------------------|
G|10-10-10-10-8--8--7--7-| 5--5--5--5--5--5--5--5-|10-10-10-10-8--8--7--7-|5--5--5--5--5--5--5--5-|
D|10-10-10-10-8--8--7--7-| 5--5--5--5--5--5--5--5-|10-10-10-10-8--8--7--7-|5--5--5--5--5--5--5--5-|
A|8--8--8--8--6--6--5--5-| 3--3--3--3--3--3--3--3-|8--8--8--8--6--6--5--5-|3--3--3--3--3--3--3--3-|
E|-----------------------|-----------------------|-----------------------|-----------------------|


  Tomi & Esa X 2
E|-----------------------|-----------------------|-----------------------|-----------------------|
B|-----------------------|-----------------------|-----------------------|-----------------------|
G|14-----14----14--14----| 12-----12----12--12----|11-----11----11--11----|-9------9-----9---9----|
D|14-----14----14--14----| 12-----12----12--12----|11-----11----11--11----|-9------9-----9---9----|
A|12-----12----12--12----| 10-----10----10--10----|-9------9-----9---9----|-7------7-----7---7----|
E|-----------------------|-----------------------|-----------------------|-----------------------|
Otros videos de esta canción
    1 exhibiciones
      • ½ Tono
      • A
      • Bb
      • B
      • C
      • Db
      • D
      • Eb
      • E
      • F
      • F#
      • G
      • Ab
    • Agregar a la lista

    Afinação da cifra

    Afinador online

      Ops (: Contenido disponible solo en portugués.
      OK