Cifra Club

Back To Black

Amy Winehouse

Tablatura: Principal (guitarra)
reproducciones 37.997
Tono: Dm
[Intro] Dm  Gm  Bb  A7

    Dm
E|--1-1---1-1---1-1---1---1-----------------|
B|--3-3---3-3---3-3---3---3-----------------|
G|--2-2---2-2---2-2---2---2-----------------|
D|--0---0-----0-----0-----------------------|
A|----------------------3---0---------------|
E|------------------------------------------|

    Gm
E|--3-3---3-3---3-3---3---3-----------------|
B|--3-3---3-3---3-3---3---3-----------------|
G|--3-3---3-3---3-3---3---3-----------------|
D|------------------------------------------|
A|--------------------------0---------------|
E|--3---3-----3-----3---4-------------------|

    Bb
E|--1-1---1-1---1-1---1---1-----------------|
B|--3-3---3-3---3-3---3---3-----------------|
G|--3-3---3-3---3-3---3---3-----------------|
D|----------------------3-------------------|
A|--1---1-----1-----1-------1---------------|
E|------------------------------------------|

    A7
E|--0-0---0-0---0-0---0---0-----------------|
B|--2-2---2-2---2-2---2---2-----------------|
G|--0-0---0-0---0-0---0---0-----------------|
D|------------------------------------------|
A|--0---0-----0-----0---3---4---------------|
E|------------------------------------------|

[Primeira Parte]

Dm                     Gm
   He left no time to regret
         Bb
Kept his ... wet
                       A7
With his same old safe    bet

 Dm        Gm
Me and my head high
        Bb
And my tears dry
                A7
Get on without my guy

 Dm                       Gm
You went back to what you    know
    Bb
So far removed
                      A7
From all that we went    through

    Dm              Gm
And I tread a troubled track
        Bb
My odds are stacked
             A7
I'll go back    to black

[Refrão]

Dm                            Gm
   We only said goodbye with words

I died a hundred times
Bb
   You go back to her
    A7 (TAB 1)
And I go back to
             Dm
I go back to us

[Variação Dedilhado]

    A7
E|--0-0---0-0---0-0---0---0-----------------|
B|--2-2---2-2---2-2---2---2-----------------|
G|--0-0---0-0---0-0---0---0-----------------|
D|------------------------------------------|
A|--0---0-----0-----0---0---0---------------|
E|------------------------------------------|

[Segunda Parte]

            Gm
I love you much
           Bb
It's not enough
                 A7
You love ... and I love puff
     Dm      Gm
And life is like a pipe
                Bb                   A7
And I'm a tiny penny rolling up the walls inside

[Refrão]

Dm                            Gm
   We only said goodbye with words

I died a hundred times
Bb
   You go back to her
    A7
And I go back to
Dm                            Gm
   We only said goodbye with words

I died a hundred times
Bb
   You go back to her
    A7
And I go back to

[Terceira Parte]

Dm       Bb7M
   Black,     black
F       A7
  Black,   black
Dm       Bb7M
   Black,     black
F
  Black
A7
   I go back to

I go back to

[Refrão]

Dm                            Gm
   We only said goodbye with words

I died a hundred times
Bb
   You go back to her
    A7
And I go back to
Dm                            Gm
   We only said goodbye with words

I died a hundred times
Bb
   You go back to her
    A7             Dm
And I go back to black
Acordes para:
    Compositor: Amy Winehouse / Mark Ronson Colaboración y revision:
    • Cadu Lima
    • Krisia Dino
    • Mariana Real

    0 comentarios

    mostrar más comentarios

    ¿Conseguiste tocar?

    132 tocaron 3 aún no

    ¡Graba un vídeo tocando Back To Black y envianoslo!

    00:00 / 00:00
    outros vídeos desta música
    repetir qualidade Automático
    Outros vídeos desta música
    00:00 / 00:00
    Automático
    Capítulos
    • Início
    • Tocando a música
    • Acordes da música
    • Tocando Introdução e Primeira Parte
    • Ensinando Introdução e Primeira Parte (1/4)
    • Ensinando Introdução e Primeira Parte (2/4)
    • Ensinando Introdução e Primeira Parte (3/4)
    • Ensinando Introdução e Primeira Parte (4/4)
    • Tocando Refrão
    • Ensinando Refrão
    • Acordes da Terceira Parte
    • Tocando Terceira Parte
    • Ensinando ritmo Terceira Parte
    • Tocando último Refrão
    • Encerramento
    OK