Cifra Club

Cherry

Amy Winehouse

Cifrado: Principal (guitarra y guitarra eléctrica)
Selo Cifra Club: esta cifra foi revisada para atender aos critérios oficiais da nossa Equipe de Qualidade.
tono: F
Verse:

   Dmaj7     E9        Em9  A7   Dmaj7

e|---------------------------------------------------------------------------|
B|--7----7----7----7----7----5----7---7--------------------------------------|
G|--6----6----7----7----7----6----6---6--------------------------------------|
D|--7----7----6----6----5----5----7---7--------------------------------------|
A|-5---------7---------7---------5-------------------------------------------|
E|------5---------7---------5--------5---------------------------------------|

Chorus:

   Em9        A7        Dmaj7

e|---------------------------------------------------------------------------|
B|--7-----7----5----5----7----7----7----7------------------------------------|
G|--7-----7----6----6----6----6----6----6------------------------------------|
D|--5----5-----5----5----7----7----7----7------------------------------------|
A|-7--------------------5---------5------------------------------------------|
E|------7-----5----5---------5---------5-------------------------------------|
Otros videos de esta canción
    19.248 exhibiciones
      • ½ Tono
      • A
      • Bb
      • B
      • C
      • Db
      • D
      • Eb
      • E
      • F
      • F#
      • G
      • Ab
    • Agregar a la lista

    Afinación de cifrado

    Afinador online

      OK