Cifra Club

Just Friends

Amy Winehouse

Cifrado: Versão 3 (guitarra y guitarra eléctrica)
Selo Cifra Club: esta cifra foi revisada para atender aos critérios oficiais da nossa Equipe de Qualidade.
tono: Bm
E|E|-------------------------------------------------------------------------------||
                             JUST FRIENDS - AMY WINEHOUSE
E|E|-------------------------------------------------------------------------------||
Tabbed by: ignaciomendez

Tuning: Standard
                     Amaj9          Bm7/A            Amaj9       Bm7/A
E|----------------------------------12---9-------------------------------------|
B|--------------------9h10p9--------12---9---/9-7------------------------------|
G|---------6-7-9--11------------------------------9--6----9-6---6--------------|
D|---6-7-9---------------------------------------------9-----------9-7-6-/9----|
A|--------------------------------------------------------------------------7--|
E|-----------------------------------------------------------------------------|
   Amaj9         Bm7/A             Amaj9       Bm7/A
E|-----------------------------------------------------------------------------|
B|------------------------12--10--9h10p9--------------7------------------------|
G|----------------------------------------------------7h9--7---7---------------|
D|----------------------------------------------------7----7---7h9-------------|
A|-----------------------------------------------------------------------------|
E|-----------------------------------------------------------------------------|

************************************
| /   slide up
| \   slide down
| h   hammer-on
| p   pull-off
| ~   vibrato
| +   harmonic
| x   Mute note
| b   Bend
| pb  Pre-bend
| br  Bend release
| pbr Pre-bend release
| brb Bend release bend
Otros videos de esta canción
    27 exhibiciones
      • ½ Tono
      • Am
      • Bbm
      • Bm
      • Cm
      • C#m
      • Dm
      • Ebm
      • Em
      • Fm
      • F#m
      • Gm
      • G#m
    • Agregar a la lista

    Afinación de cifrado

    Afinador online

      OK