Cifra Club

Rehab

Amy Winehouse

Cifrado: Principal (guitarra y guitarra eléctrica)
Selo Cifra Club: esta cifra foi revisada para atender aos critérios oficiais da nossa Equipe de Qualidade.
tono: C
Riff - Primeira Parte:

(Parte 1)
    C7
E|-----------------------------------------
B|--1-x--1----------1--x--1----------------
G|--3-x--3----------3--x--3----------------
D|--2-x--2----------2--x--2----------------
A|--3-x--3----1-3---3--x--3----1-3---------
E|----------3----------------3-------------

(Parte 2)
    C7              F
E|------------------1-----1----------------
B|--1-x--1----------1--x--1----------------
G|--3-x--3----------2--x--2----------------
D|--2-x--2----------3--x--3----------------
A|--3-x--3----1-3---3--x--3----1-3---------
E|----------3-------1-----1--3-------------
    C7
E|-----------------------------------------
B|--1-x--1----------1--x--1----------------
G|--3-x--3----------3--x--3----------------
D|--2-x--2----------2--x--2----------------
A|--3-x--3----1-3---3--x--3----1-3---------
E|----------3----------------3-------------


       C7
They tried to make me go to rehab I say no no no

Yes, I've been black but when I come back you'll know, know, know
G7                               F7
I ain't got the time and if my daddy thinks I'm fine
       C                    F             C7
He's tried to make me go to rehab I won't go go go

Em                      Am
I'd rather be at home with Ray
F                    Ab
I ain't got seventy days
               Em                                  Am
Cause there's nothing, there's nothing you can't teach me
F                           Ab
That I can't learn from Mr Hathaway
G7
I didn't get a lot in class
      F
But I know it don't come in a shot glass

       C7
They tried to make me go to rehab I say no no no

Yes, I've been black but when I come back you'll know, know, know
G7                               F7
I ain't got the time and if my daddy thinks I'm fine
       C7                   F              C7
He's tried to make me go to rehab I won't go go go

Em                             Am
The man said why do you think you here?
F               Ab
I said I got no idea
Em                           Am
I'm gonna, I'm gonna lose my baby
F                   Ab
So I always keep a bottle near
G7
He said I just think you're depressed
F
Kiss me, yeah baby, and go rest

       C7
They tried to make me go to rehab I say no no no

Yes, I've been black but when I come back you'll know, know, know

Em                      Am
I don't ever want to drink again
F                   Ab
I just, ooh I just need a friend
Em                    Am
I'm not gonna spend ten weeks
F                       Ab
And have everyone think I've gone mad
G7
And it's not just my pride
F
It's just til these tears have dried

       C7
They tried to make me go to rehab I say no no no

Yes, I've been black but when I come back you'll know, know, know
G7                               F7
I ain't got the time and if my daddy thinks I'm fine
       C7                   F           C7
He's tried to make me go to rehab I won't go go go
Otros videos de esta canción
    591.120 exhibiciones
      • ½ Tono
      • A
      • Bb
      • B
      • C
      • Db
      • D
      • Eb
      • E
      • F
      • F#
      • G
      • Ab
    • Agregar a la lista

    Afinación de cifrado

    Afinador online

      Capítulos
      • Início
      • Tocando a música
      • Acordes da Primeira Parte
      • Tocando Primeira Parte
      • Ensinando Primeira Parte
      • Ensinando Ritmo da Primeira Parte
      • Tocando Primeira Parte Lento
      • Acordes da Segunda Parte
      • Tocando Segunda Parte
      • Ensinando Ritmo da Segunda parte
      • Encerramento
      OK