Cifra Club

Take The Box

Amy Winehouse

Tab de bajo: Principal
Selo Cifra Club: esta cifra foi revisada para atender aos critérios oficiais da nossa Equipe de Qualidade.
[Intro] 
G|---------------------------------------------------|
D|---------------------------------------------------|
A|-4--4-----------4--4-------------------------------|
E|-------2--4--4--------2--4--4----------------------|

[Primeira Parte] 
G|---------------------------------------------------|
D|----------------------------------x-4h6~-----------|
A|-2--4--4-----------4/5--5----6\--------------------|
E|----------2--4--4--------------4-------------------|

G|---------------------------------------------------|
D|---------------------------------------------------|
A|-4--4-----------4/5--5\------1---------------------|
E|-------2--4--4-----------1-------------------------|

[Pré-Refrão] 
G|---------------------------------------------------|
D|---------------------------------------------------|
A|-6----------7-------9\--6----------7-------9-------|
E|----6--6/7-----7h9---------6--6/7-----7h9----------|

[Refrão] 
G|---------------------------------------------------|
D|---------------------------------------------------|
A|---------7--7----------7--7------------------------|
E|-x-7--7--------x-7--7--------x-7--7\--7-6-5--2-----|

[Ponte] 
G|---------------------------------------------------|
D|---------------------------------------------------|
A|---------6/11--11----------------------------------|
E|-x-4--4--------------------------------------------|

[Segunda Parte] 
G|---------------------------------------------------|
D|--------------------------------x-4h6~-------------|
A|-4--4-----------x-4/5--5--6------------------------|
E|-------2--4--4---------------4---------------------|

G|---------------------------------------------------|
D|---------------------------------------------------|
A|-4--4-----------x-4/5--5\-----1--------------------|
E|-------2--4--4-------------1-----------------------|

[Pré-Refrão] 
G|---------------------------------------------------|
D|---------------------------------------------------|
A|-x-6----------7-----9\--6------------7-------9-----|
E|------6--x-7-----9---------6--x-6/7-----7h9--------|

[Refrão] 
G|---------------------------------------------------|
D|---------------------------------------------------|
A|---------7--7----------7--7------------------------|
E|-x-7--7--------x-7--7--------x-7--7\--7-6-5--5-----|

G|---------------------------------------------------|
D|---------------------------------------------------|
A|---------------------------------------------------|
E|-x-7--7--7-6-5--5--x-7--7--7-6-5--2--x-4-----------|
Otros videos de esta canción
    16 exhibiciones

    Afinação da cifra

    Afinador online

    Ops (: Contenido disponible solo en portugués.
    OK