Cifra Club

Derroche

Ana Belén

Cifrado: Principal (guitarra y guitarra eléctrica)
Selo Cifra Club: esta cifra foi revisada para atender aos critérios oficiais da nossa Equipe de Qualidade.
tono: Em

INTRO
   Em                                                                                  Em
E|----------------------------------------------------------------------------------------------------|
B|------------1------------0------------1------------0-------------1------------0------------1-----0--|
G|---------0------------0------------0------------0-------------0------------0------------0-----0--0--|
D|--2-h-4--------2-h-4--------2-h-4--------2-h-4---------2-h-4--------2-h-4--------2-h-4-----------2--|
A|-------------------------------------------------------------------------------------------------2--|
E|--0------------0------------0------------0------------0-------------0------------0------------------|


     C                   Em
El reloj de cuerda suspendido
     C                Em
el teléfono desconectado
       C             Em
en una mesa dos copas de vino
       C              Em
y a la noche se le fue la mano.

   Em                                   Em
E|-----------------------------------------------|
B|------------1------------0------------1-----0--|
G|---------0------------0------------0-----0--0--|
D|--2-h-4--------2-h-4--------2-h-4-----------2--|
A|--------------------------------------------2--|
E|--0------------0------------0------------------|

    C               Em
Una luz rosada imaginamos
     C                   Em
comenzamos por probar el vino
    C                   Em
con mirarnos todo lo dijimos
       C         B7        Em
y a la noche se le fue la mano.

   Em                                   Em
E|-----------------------------------------------|
B|------------1------------0------------1-----0--|
G|---------0------------0------------0-----0--0--|
D|--2-h-4--------2-h-4--------2-h-4-----------2--|
A|--------------------------------------------2--|
E|--0------------0------------0------------------|


     G                   D
Si supiera contar todo lo que sentí
      C                       B7
no quedó un lugar que no anduviera en ti,
Em        B7
besos, ternura,
      Em                   B7
qué derroche de amor, cuánta locura,
Em        B7
besos, ternura,
      Em                      B7
qué derroche de amor cuánta locura;
     G                            D
que no acabe esta noche, ni esta luna de abril
     C                         B7
para entrar en el cielo no es preciso morir,
Em        B7
besos, ternura,
      Em                   B7
qué derroche de amor, cuánta locura,
Em        B7
besos, ternura,
      Em                      B7
qué derroche de amor cuánta locura.

   Em                                   Em
E|-----------------------------------------------|
B|------------1------------0------------1-----0--|
G|---------0------------0------------0-----0--0--|
D|--2-h-4--------2-h-4--------2-h-4-----------2--|
A|--------------------------------------------2--|
E|--0------------0------------0------------------|


    C                  Em
Parecíamos dos irracionales
       C            Em
que se iban a morir mañana,

                       Em
E|---------------------|
B|------------1-----0--|
G|---------0-----0--0--|
D|--2-h-4-----------2--|
A|------------------2--|
E|--0------------------|


   C                   Em
derrochamos no importaba nada
    C                   Em
las reservas de los manantiales,
    C                  Em
parecíamos dos irracionales
       C      B7    Em
que se iban a morir mañana.

   Em                                   Em
E|-----------------------------------------------|
B|------------1------------0------------1-----0--|
G|---------0------------0------------0-----0--0--|
D|--2-h-4--------2-h-4--------2-h-4-----------2--|
A|--------------------------------------------2--|
E|--0------------0------------0------------------|

     G                   D
Si pudiera contar todo lo que sentí
      C                       B7
no quedó un lugar que no anduviera en ti,
Em        B7
besos, ternura,
      Em                   B7
qué derroche de amor, cuánta locura,
Em        B7
besos, ternura,
      Em                      B7
qué derroche de amor cuánta locura;
    G                            D
que no acabe esta noche, ni esta luna de abril
     C                         B7
para entrar en el cielo no es preciso morir,
Em        B7
besos, ternura,
     Em                        B7
y la noche es testigo de esta inmensa locura
Em        B7
besos, ternura,
        Em               B7
nuestra ruta de amor se convierte en ternura,
Em        B7
besos, ternura,
      Em                   B7
qué derroche de amor, cuánta locura,
Em        B7
besos, ternura . . . etc
Otros videos de esta canción
    2.089 exhibiciones
      • ½ Tono
      • Am
      • Bbm
      • Bm
      • Cm
      • C#m
      • Dm
      • Ebm
      • Em
      • Fm
      • F#m
      • Gm
      • G#m
    • Agregar a la lista

    Afinação da cifra

    Afinador online

      Ops (: Contenido disponible solo en portugués.
      OK