Cifra Club

Aprenda

Eu Viro Onça

Ana Elisa e Mariana

Tablatura: Principal (guitarra)
tono: Db
Db                          Bbm
Você mudou o meu jeito de ser
De lagarta a borboleta só pra
        Gb
você me ver
Se precisar eu viro onça pra
        Ab
não te perder
              Gb        Ab
Sou capaz de tudo pra ficar
     Db
com você.


Solo Introdução
   Db
E|---4-4-4-4-4----------------|
B|-6------------6-6-4---6-----|
G|--------------------6-------|
D|----------------------------|
A|----------------------------|
E|----------------------------|

   Bbm
E|---4-4-4-4-4----------------|
B|-6------------6-6-4---7-----|
G|--------------------6-------|
D|----------------------------|
A|----------------------------|
E|----------------------------|

   Gb                       Ab
E|----------------------------|
B|---------------------4h6-4--|
G|-3-6-3-6-3-6-3-6-3-6--------|
D|----------------------------|
A|----------------------------|
E|----------------------------|

        Gb    Ab  Db
E|-------4--------------------|
B|---4-7---6-6h4--------------|
G|-6-------------6------------|
D|----------------------------|
A|----------------------------|
E|----------------------------|

Introdução
Db Bbm Gb Ab Gb Ab Db



                Bbm
Amor, bem mais fácil sentir
       Db
que decifrar
          Bbm               Db
Bem mais fácil provar que só
falar
      Gb                 Ebm
É um mix de emoção que invade
     Ab
o coração.
Gb
É tão difícil de entender o
                    Bbm
que acontece com a gente
                        Gb
Tudo muda de cor tão derepente
                  Ebm
Muda o jeito de olhar de
            Ab
sorrir de falar
           Gb      Ab     Db
Quando o amor vem pra ficar.

Refrão

Db                         Bbm
Você mudou o meu jeito de ser
De lagarta a borboleta só pra
        Gb
você me ver
                     Ebm
Se precisar eu viro onça pra
         Ab
não te perder
             Gb        Ab
Sou capaz de tudo pra ficar
     Db
com você.
Cada dia ao seu lado eu sou
       Bbm
mais feliz
Meu território tá marcado
                   Gb
ninguém mais pisa aqui
                     Ebm
Se precisar eu viro onça pra
         Ab
não te perder
             Gb       Ab
Sou capaz de tudo pra ficar
     Db
com você.


Solo 2
   Db
E|---4-4-4-4-4----------------|
B|-6------------6-6-4---6-----|
G|--------------------6-------|
D|----------------------------|
A|----------------------------|
E|----------------------------|

   Bbm
E|---4-4-4-4-4----------------|
B|-6------------6-6-4---7-----|
G|--------------------6-------|
D|----------------------------|
A|----------------------------|
E|----------------------------|

   Gb                       Ab
E|----------------------------|
B|---------------------4h6-4--|
G|-3-6-3-6-3-6-3-6-3-6--------|
D|----------------------------|
A|----------------------------|
E|----------------------------|

        Gb    Ab  Gb
E|-------4--------------------|
B|---4-7---6-6-4--------------|
G|-6-------------3------------|
D|----------------------------|
A|----------------------------|
E|----------------------------|

Solo 2
Db Bbm Gb Ab Gb Ab Gb


Gb
É tão difícil de entender o
                    Bbm
que acontece com a gente
                        Gb
Tudo muda de cor tão derepente
                  Ebm
Muda o jeito de olhar de
            Ab
sorrir de falar
           Gb      Ab     Db
Quando o amor vem pra ficar.

Refrão 2x


Solo 3 (Final)

   Db
E|---4-4-4-4-4----------------|
B|-6------------6-6-4---6-----|
G|--------------------6-------|
D|----------------------------|
A|----------------------------|
E|----------------------------|

   Bbm
E|---4-4-4-4-4----------------|
B|-6------------6-6-4---7-----|
G|--------------------6-------|
D|----------------------------|
A|----------------------------|
E|----------------------------|

   Gb                       Db
E|----------------------------|
B|---------------------6------|
G|-3-6-3-6-3-6-3-6-3-6---6----|
D|----------------------------|
A|----------------------------|
E|----------------------------|

Solo 3 (Final)
Db Bbm Gb Db
Composição de Juliano Raffan / Mariana
Colaboración y revision:
  • Luís Duarte
  • Augusto Silva
46 reproducciones
    • ½ Tono
    • A
    • Bb
    • B
    • C
    • Db
    • D
    • Eb
    • E
    • F
    • F#
    • G
    • Ab
  • Adicionar à lista

    0 comentarios

    Ver todos os comentários

    ¿Conseguiste tocar?

    0 Tocaram 0 Ainda não

    Grave um vídeo tocando Eu Viro Onça e nos envie!

    00:00 / 00:00
    outros vídeos desta música
    repetir qualidade Automático
    Outros vídeos desta música
    00:00 / 00:00
    Automático
    OK