Cifra Club

Fgbh Gj

Ana Gabriel

Cifrado: Principal (guitarra y guitarra eléctrica)
Selo Cifra Club: esta cifra foi revisada para atender aos critérios oficiais da nossa Equipe de Qualidade.
tono: G
B|------------------------------------------|
G|------------------------------------------|
D|---2---2---2---2---2---2---2---2----------|
A|------------------------------------------|
E|-0---0---0---0---0---0---0---0------------|

      Em
E|------------------------------------------|
B|------------------------------------------|
G|------------------------------------------|
D|---2---2---2---2---2---2---2---2----------|
A|------------------------------------------|
E|-0---0---0---0---0---0---0---0------------|

      C       G5      D5      Em
E|------------------------------------------|
B|------------------------------------------|
G|-----------0---0---2---2------------------|
D|---2---2---------0---0-----2---2---2---2--|
A|-3---3------------------------------------|
E|---------3---3-----------0---0---0---0----|

      Em
E|------------------------------------------|
B|------------------------------------------|
G|------------------------------------------|
D|---2---2---2---2---2---2---2---2----------|
A|------------------------------------------|
E|-0---0---0---0---0---0---0---0------------|

      C       G5      D5       Em
E|------------------------------------------|
B|------------------------------------------|
G|-----------0---0---2---2------------------|
D|---2---2---------0---0-----2---2---2---2--|
A|-3---3------------------------------------|
E|---------3---3-----------0---0---0---0----|

Em                        C        G5
  Hey brother, there's an endless road
    D5    Em
To re-discover

 Em                   C        G5
Hey sister, know the water's sweet
      D5       Em
But blood is thicker

Segunda Parte

      D5              G5      C
E|------------------------------------------|
B|------------------------------------------|
G|---2---2---2---2---0---0------------------|
D|-0---0---0---0-------------2---2----------|
A|-------------------------3---3------------|
E|-----------------3---3--------------------|

      D5
E|------------------------------------------|
B|------------------------------------------|
G|---2---2---2---2--------------------------|
D|-0---0---0---0----------------------------|
A|------------------------------------------|
E|------------------------------------------|

      D5              G5      C7M
E|------------------------------------------|
B|------------------------------------------|
G|---2---2---2---2---0---0------------------|
D|-0---0---0---0-------------2---2----------|
A|-------------------------3---3------------|
E|-----------------3---3--------------------|

      Em
E|-------------------0----------------------|
B|-------------------0----------------------|
G|-------------------0----------------------|
D|---2---2---2---2---2----------------------|
A|-------------------2----------------------|
E|-0---0---0---0-----0----------------------|

D5           G5       C       D5
Oh, if the sky comes falling down
                  G5              C7M
For you, there's nothing in this world
            Em
I wouldn't do

(Variação da Primeira e Segunda Parte)

 Em                   C      G5
Hey brother, do you still believe
   D5     Em
In one  another
 Em                  C      G5
Hey sister, do you still believe
    D5     Em
In love I wonder

D5           G5       C       D5
Oh, if the sky comes falling down
                  G5              C7M
For you, there's nothing in this world
            Em
I wouldn't do

(Terceira Parte)

Em             C        G5
  What if I'm far from home
                            D/F#
Oh brother I will hear you call
Em           C      G5
  What if I lose it all

Oh sister I will help you out

D5           G5       C       D5
Oh, if the sky comes falling down
                  G5              C7M
For you, there's nothing in this world
            Em
I wouldn't do

(Solo)

Parte 1

E|------------------------------------------|
B|------------------------------------------|
G|-0----------------------------------------|
D|---4--------------------------------------|
A|------------------------------------------|
E|------------------------------------------|

Parte 2

E|---------0-0----------------0-2-0---------|
B|-----0-3-----3----------0-3-------3-------|
G|---0---------------0--0-------------4-2-0-|
D|-2-------------0-2------------------------|
A|------------------------------------------|
E|------------------------------------------|

E|---------0-0----------------0-2-0---------|
B|-----0-3-----3----------0-3-------3-------|
G|---0---------------0--0-------------4-2-0-|
D|-2-------------0-2------------------------|
A|------------------------------------------|
E|------------------------------------------|

E|---------0-0----------------0-2-0---------|
B|-----0-3-----3----------0-3-------3-------|
G|---0---------------0--0-------------4-2-0-|
D|-2-------------0-2------------------------|
A|------------------------------------------|
E|------------------------------------------|

Parte 3

E|---------0-0----------0-------------------|
B|-----0-3-----3----------3-0-3-------------|
G|---0---------------0----------------------|
D|-2-------------0-2------------------------|
A|------------------------------------------|
E|------------------------------------------|

Parte 4

E|---------0-0----------------0-2-0---------|
B|-----0-3-----3----------0-3-------3-------|
G|---0---------------0--0-------------4-2-0-|
D|-2-------------0-2------------------------|
A|------------------------------------------|
E|------------------------------------------|

E|---------0-0----------------0-2-0---------|
B|-----0-3-----3----------0-3-------3-------|
G|---0---------------0--0-------------4-2-0-|
D|-2-------------0-2------------------------|
A|------------------------------------------|
E|------------------------------------------|

Parte 5

      Em
E|--------------------0-----------|
B|--------------------0-----------|
G|--------------------0-----------|
D|-2--2---2---2---2---2-----------|
A|-2------------------2-----------|
E|-0----0---0---0-----0-----------|

Base do Solo: Em C D5 Em G D/F#

(Continuação da Música)

Em                        C        G5
  Hey brother, there's an endless road
    D5    Em
To re-discover
 Em                  C      G5
Hey sister, do you still believe
    D5     Em
In love I wonder

D5           G5       C       D5
Oh, if the sky comes falling down
                  G5              C7M
For you, there's nothing in this world
            Em
I wouldn't do

Em             C        G5
  What if I'm far from home
                            D/F#
Oh brother I will hear you call
Em           C      G5
  What if I lose it all

Oh sister I will help you out

D5           G5       C       D5
Oh, if the sky comes falling down
                  G5              C7M
For you, there's nothing in this world
            Em
I wouldn't do

(Solo)

Parte 1

E|------------------------------------------|
B|------------------------------------------|
G|-0----------------------------------------|
D|---4--------------------------------------|
A|------------------------------------------|
E|------------------------------------------|

Parte 2

E|---------0-0----------------0-2-0---------|
B|-----0-3-----3----------0-3-------3-------|
G|---0---------------0--0-------------4-2-0-|
D|-2-------------0-2------------------------|
A|------------------------------------------|
E|------------------------------------------|

E|---------0-0----------------0-2-0---------|
B|-----0-3-----3----------0-3-------3-------|
G|---0---------------0--0-------------4-2-0-|
D|-2-------------0-2------------------------|
A|------------------------------------------|
E|------------------------------------------|

E|---------0-0----------------0-2-0---------|
B|-----0-3-----3----------0-3-------3-------|
G|---0---------------0--0-------------4-2-0-|
D|-2-------------0-2------------------------|
A|------------------------------------------|
E|------------------------------------------|

Parte 3

E|---------0-0----------0-------------------|
B|-----0-3-----3----------3-0-3-------------|
G|---0---------------0----------------------|
D|-2-------------0-2------------------------|
A|------------------------------------------|
E|------------------------------------------|

Parte 4

E|---------0-0----------------0-2-0---------|
B|-----0-3-----3----------0-3-------3-------|
G|---0---------------0--0-------------4-2-0-|
D|-2-------------0-2------------------------|
A|------------------------------------------|
E|------------------------------------------|

E|---------0-0----------------0-2-0---------|
B|-----0-3-----3----------0-3-------3-------|
G|---0---------------0--0-------------4-2-0-|
D|-2-------------0-2------------------------|
A|------------------------------------------|
E|------------------------------------------|

Otros videos de esta canción
    39 exhibiciones
      • ½ Tono
      • A
      • Bb
      • B
      • C
      • Db
      • D
      • Eb
      • E
      • F
      • F#
      • G
      • Ab
    • Agregar a la lista

    Afinação da cifra

    Afinador online

      Ops (: Contenido disponible solo en portugués.
      OK