Cifra Club

Rolê (part. Victor Kley)

Ana Vilela

Cifrado: Principal (guitarra y guitarra eléctrica)
tono: G
[Intro] F#m7  C#m7  Bm7  C#m7  
        F#m7  C#m7  Bm7

E|------------------------------------------|
B|-----------14-12h14p12\10-----------------|
G|-----11-14--------------------------------|
D|--14--------------------------------------|
A|------------------------------------------|
E|------------------------------------------|

E|------------------------------------------|
B|--14b15r14p12-12-10-12/14-----------------|
G|------------------------------------------|
D|------------------------------------------|
A|------------------------------------------|
E|------------------------------------------|

E|------------------------------------------|
B|-----------14-12h14p12\10-----------------|
G|-----11-14--------------------------------|
D|--14--------------------------------------|
A|------------------------------------------|
E|------------------------------------------|

E|-------12/14-12~~-------------------------|
B|----10------------------------------------|
G|--9---------------------------------------|
D|------------------------------------------|
A|------------------------------------------|
E|------------------------------------------|

A              C#m7                       Bm7 
Aí, esse teu jeito de me olhar que me faz congelar
A               C#m7           Bm7 
E traz o brilho de uma constelação inteira
A                 C#m7                        Bm7 
As páginas de um livro que eu não quero nunca terminar
F#m7     C#m7                Bm7
Aquela pessoa que faz o rolê valer a pena

F#m7     
Em nosso edredom, curtindo um som
        C#m7                
Isso me deixa tão quente
       Bm7
Como é bom estar ao lado

De quem se importa com a gente

       F#m7
Nunca senti algo assim
          C#m7
E sei que é de verdade
          Bm7
Estar com você, te ver sorrir
         C#m7
É melhor que chocolate

 F#m7        C#m7             Bm7
Aquele sonho que ninguém quer acordar
F#m7     C#m7    
Vir pra ficar pra sempre
 Bm7    C#m7  
E me deixar contente
F#m7     C#m7 
E o que rolar entre a gente
     Bm7         Em7 
Que seja eterno enquanto durar

A              C#m7                       Bm7 
Aí, esse teu jeito de me olhar que me faz congelar
A               C#m7           Bm7 
E traz o brilho de uma constelação inteira
A                 C#m7                        Bm7 
As páginas de um livro que eu não quero nunca terminar
F#m7     C#m7                Bm7
Aquela pessoa que faz o rolê valer a pena

F#m7     
Em nosso edredom, curtindo um som
        C#m7                
Isso me deixa tão quente
       Bm7
Como é bom estar ao lado

De quem se importa com a gente

       F#m7
Nunca senti algo assim
          C#m7
E sei que é de verdade
          Bm7
Estar com você, te ver sorrir
         C#m7
É melhor que chocolate

 F#m7        C#m7             Bm7
Aquele sonho que ninguém quer acordar
F#m7     C#m7    
Vir pra ficar pra sempre
 Bm7    C#m7  
E me deixar contente
F#m7     C#m7 
E o que rolar entre a gente
     Bm7         Em7 
Que seja eterno enquanto durar

A              C#m7                       Bm7 
Aí, esse teu jeito de me olhar que me faz congelar
A               C#m7           Bm7 
E traz o brilho de uma constelação inteira
A                 C#m7                        Bm7 
As páginas de um livro que eu não quero nunca terminar
F#m7     C#m7                Bm7
Aquela pessoa que faz o rolê valer a pena
A              C#m7                       Bm7 
Aí, esse teu jeito de me olhar que me faz congelar
A               C#m7           Bm7 
E traz o brilho de uma constelação inteira
A                 C#m7                        Bm7 
As páginas de um livro que eu não quero nunca terminar
F#m7     C#m7                Bm7
Aquela pessoa que faz o rolê valer a pena

( A  C#m7  Bm7  )

E|------------------------------------------|
B|--13b14~~--10h12p10-----------------------|
G|------------------------------------------|
D|------------------------------------------|
A|------------------------------------------|
E|------------------------------------------|

E|------------------------------------------|
B|---------13b14r13b4-10h12p10--15b17~~-----|
G|--11h14-----------------------------------|
D|------------------------------------------|
A|------------------------------------------|
E|------------------------------------------|
Compositor não encontrado.
Colaboración y revisión:
  • Gilson Feitosa
1 vistas
    • ½ Tono
    • A
    • Bb
    • B
    • C
    • Db
    • D
    • Eb
    • E
    • F
    • F#
    • G
    • Ab
  • Agregar a la lista

    0 comentarios

    Ver todos los comentarios

    ¿Lograste tocar?

    0 Tocaron 0 Aún no

    ¡Graba un video tocando Rolê (part. Victor Kley) y envíanoslo!

    00:00 / 00:00
    Outros vídeos desta música
    Repetir Calidad Automático
    Outros vídeos desta música
    00:00 / 00:00
    Automático
    OK