Cifra Club

Me Conta da Tua Janela

Anavitória

Cifrado: Principal (guitarra y guitarra eléctrica)
Acompaña nuestras novedades de Cifra Club en español.
¡Sigue nuestro perfil en Instagram!
tono: G
[Intro] G/B  C  D  D#°  Em
        D  C  Cm  G/B

   G/B  C          D     D#° Em    
E|------------------------------------------|
B|-3-3--5-5-----5----7-----7---8--8-----8---|
G|------------------------------------------|
D|------------------------------------------|
A|-2----3---3-3----5---5-6---7------7-7-----|
E|------------------------------------------|

   Em D    C            Cm   G/B     
E|------------------------------------------|
B|-8----7----5-5-----5--4-4--3-3-----3------|
G|------------------------------------------|
D|------------------------------------------|
A|-7--5----3-----3-3----3----2---2-2--------|
E|------------------------------------------|

[Primeira Parte]

   G/B  C          D     D#° Em    
E|------------------------------------------|
B|-3-3--5-5-----5----7-----7---8--8-----8---|
G|------------------------------------------|
D|------------------------------------------|
A|-2----3---3-3----5---5-6---7------7-7-----|
E|------------------------------------------|

   Em D    C            Cm   G/B     
E|------------------------------------------|
B|-8----7----5-5-----5--4-4--3-3-----3------|
G|------------------------------------------|
D|------------------------------------------|
A|-7--5----3-----3-3----3----2---2-2--------|
E|------------------------------------------|

 G/B                  C 
Passa aqui depois das 6?
       D        D#°     Em                     
Sei lá, tô com saudade de te encontrar
           D         C
É que aqui em Sampa tá quieto demais
Cm                      G/B
   E as minhas paredes parecem fronteiras

[Segunda Parte]

   G/B  C          D     D#° Em    
E|------------------------------------------|
B|-3-3--5-5-----5----7-----7---8--8-----8---|
G|------------------------------------------|
D|------------------------------------------|
A|-2----3---3-3----5---5-6---7------7-7-----|
E|------------------------------------------|

   Em D    C            Cm   G/B     
E|------------------------------------------|
B|-8----7----5-5-----5--4-4--3-3-----3------|
G|------------------------------------------|
D|------------------------------------------|
A|-7--5----3-----3-3----3----2---2-2--------|
E|------------------------------------------|

   Em D    C            Cm   G/B     
E|------------------------------------------|
B|-8----7----5-5-----5--4-4--3-3-----3------|
G|------------------------------------------|
D|------------------------------------------|
A|-7--5----3-----3-3----3----2---2-2--------|
E|------------------------------------------|

 G/B                 C
Se não der, tenta ligar
   D       D#°    Em
A gente resume a distância
             D     C
Me conta da tua janela
    Cm                  G/B
Me diz que o mundo não vai acabar
    Em       D     C
Me conta da tua janela
      Cm                     G/B   
E me diz que o mundo não vai acabar

[Terceira Parte]

   Am7(11)               D7(13)
E|------------------------------------------|
B|-----0----------0----------0---------0----|
G|-------5----------5----------5---------5--|
D|---5-----5----5-----5----4-----4---4-----4|
A|-----------------------5---------5--------|
E|-5----------5-----------------------------|

   D#°           
E|------------------------------------------|
B|-7--------------7-------------------------|
G|---------5--------------5-----------------|
D|-----7-------7------7-------7-------------|
A|-6-6---6---6----6-6---6---6---------------|
E|------------------------------------------|

   Em       D        C
E|------------------------------------------|
B|-8-----8--7-----7--5-----5----5-----5-----|
G|---0--------0--------0-----0----0-----0---|
D|------------------------------------------|
A|-7---7----5---5----3---3------3---3-------|
E|------------------------------------------|

   G/B
E|------------------------------------------|
B|-3-----3----3-----3-----------------------|
G|---0-----0----0-----0---------------------|
D|------------------------------------------|
A|-2---2------2---2-------------------------|
E|------------------------------------------|

   Am7(11)               D7(13)
E|------------------------------------------|
B|-----0----------0----------0--------------|
G|-------5----------5----------5------------|
D|---5-----5----5-----5----4-----4----------|
A|-----------------------5------------------|
E|-5----------5-----------------------------|

    Am7(11)             D7(13)     
Daqui, eu vi o tempo parar
                  D#°
Pra gente se lembrar 
                   Em        D
Da força que é alguém do lado
                C
Pra gente entender 
                          G/B
Que nós e o chão somos a mesma coisa
               Am7(11)  D7(13)
E os dias são contados
             G/B
Pra gente viver

( C  D  D#°  Em )
( D  C  Cm  G/B )

[Segunda Parte]

 G/B               C
Se o tumulto perdurar
  D          D#°      Em
Acalme esse teu peito aflito
             D        C
Te fiz essa canção, amigo
    Cm                     G/B 
Contigo é que eu quero cantar
    Em          D     C
Eu fiz essa canção, amigo
     Cm                 G/B
Pro mundo inteiro se curar

[Terceira Parte]

    Am7(11)             D7(13)     
Daqui, eu vi o tempo parar
                  D#°
Pra gente se lembrar 
                   Em        D
Da força que é alguém do lado
                C
Pra gente entender 
                          G/B
Que nós e o chão somos a mesma coisa
               Am7(11)  D7(13)
E os dias são contados
             G/B
Pra gente viver

( C  D  D#°  Em )
( D  C  Cm  G/B )

[Segunda Parte]

 G/B                  C 
Passa aqui depois das 6?
       D        D#°     Em                     
Sei lá, tô com saudade de te encontrar
             D     C
Me conta da tua janela
    Cm                  G/B
Me diz que o mundo não vai acabar
    Em          D     C
Eu fiz essa canção, amigo
     Cm                 G/B
Pro mundo inteiro se curar
Composición de Ana Caetano
Colaboración y revisión:
  • Thiago Almeida
  • Jade Boldrini
  • Ester Teixeira
159 vistas
  • Simplificar cifrado
    • ½ Tono
    • A
    • Bb
    • B
    • C
    • Db
    • D
    • Eb
    • E
    • F
    • F#
    • G
    • Ab
  • Agregar a la lista

    0 comentarios

    Ver todos los comentarios

    ¿Lograste tocar?

    22 Tocaron 13 Aún no

    ¡Graba un video tocando Me Conta da Tua Janela y envíanoslo!

    00:00 / 00:00
    Outros vídeos desta música
    Repetir Calidad Automático
    Outros vídeos desta música
    00:00 / 00:00
    Automático
    Capítulos
    • Apresentação / Equipamentos
    • Acordes da Introdução e Primeira Parte
    • Ritmo da Música
    • Tocando a Introdução
    • Dica
    • Variação do Ritmo da Música
    • Acordes do Refrão
    • Ritmo do Refrão
    • Tocando Trecho da Música
    • Encerramento
    OK