Cifra Club

Coração Valente

Anderson Freire

Cifrado: Principal (guitarra y guitarra eléctrica)
tono: C#m
[Intro] C#m  F#m7(11)/C#  G#7(4) 
        G#  A9/E  B4(9)

    C#m
E|--0---------------------------------------------|
B|-------4----4----2----2----0----0---------------|
G|------------------------------------------------|
D|-------------------------------------6----------|
A|------------------------------------------------|
E|------------------------------------------------|

    F#m7(11)/C#   
E|------------------------------------------------|
B|--0---------------------------------------------|
G|-------2----2-----------------------------------|
D|-----------------6----6----4----4---------------|
A|-------------------------------------4----------|
E|------------------------------------------------|
    
    G#7(4)              G#
E|------------------------------------------------|
B|------------------------------------------------|
G|------------------------------------------------|
D|------------------------------------------------|
A|--6----4----4-----------------------------------|
E|-----------------6----2h4-----------------------|

              A9/E                           B4(9)   
E|---0-------------------0---------0----4----2----|
B|-------4----4----4---------2h4------------------|
G|------------------------------------------------|
D|------------------------------------------------|
A|------------------------------------------------|
E|------------------------------------------------|

C#m             F#m           C#m  C#7(4/9)
Circunstâncias dizem que não dá
 C#m         C#m7(9)    F#m7(11)
Falam que você está tão perto de parar
B4
Coração valente
B4/D#                   E9
É assim que quero hoje te chamar

E|--4----0-----------------------------------------|
B|------------4----2-------------------------------|
G|-------------------------------------------------|
D|-------------------------------------------------|
A|-------------------------------------------------|
E|-------------------------------------------------|

( C# )

C#m           F#m       C#m  C#7(4/9)
É normal na guerra se ferir
C#m                F#m7(11)
E pra não morrer às vezes pensa em fugir
B4/D#
Cego pelo medo
    B/A                       E
Não vê que o gigante é bem menor que a mão de Deus
Bm6/D         C#7/F          F#m7(11)
Não quero contar na história que você morreu
   Am6                   E9
Se por um tempo você só adormeceu

  C#m                  F#m/A               A9/C#
Coração, por três dias Jesus parou de respirar
              G#7(4)       G#7
Pra fazer voc---ê ressuscitar
  G#7(9-)   C#m/G#             F#m/A
Tudo        bem, de carne você é
                  A9/C#
Mas sua estrutura é a fé       
           G#/D#                A9/C#   B4/F#       
Coração valente você não pode para-----------r
                                                                
    C#m                 F#m   
E|--0-------------------2----0---------0---------|
B|-------4----4----2--------------4--------------|
G|-----------------------------------------------|
D|--2----1----1----4----4----2----1----2---------|
A|-----------------------------------------------|
E|-----------------------------------------------|

C#m/E         F#m     C#m/G#  C#7(4/9)
É normal na guerra se ferir
C#m                       F#m7(11)
E pra não morrer às vezes pensa em fugir
B4
Cego pelo medo
    B/A                       E9
Não vê que o gigante é bem menor que a mão de Deus
Bm6/D         C#7/F          F#m7(11)/C#
Não quero contar na história que você morreu
   Am6                   E/G#
Se por um tempo você só adormeceu

C#     D#     C#m                F#m/A               A9/C#
Co_____ra_____ção, por três dias Jesus parou de respirar
             G#7(4)     G#
Pra fazer você ressuscitar
   G#7(9-)   C#m                F#m/A
Tudo         bem, de carne você é
                  A9/C#
Mas sua estrutura é a fé
           G#/D#    
Coração valente você não pode parar

[Solo] A9/C#  B6/F#  C#m 
       C#  D#  E  F#
       A9  C#m/B  G#7(4)

E|-----------------------------------------------------------|
B|-----------------------------------------------------------|
G|-4h6~~--6-8-9-11b13--13r11p9-11--11-13b14~-14r13p11-13-----|
D|-----------------------------------------------------------|
A|-----------------------------------------------------------|
E|-----------------------------------------------------------|

E|-14b16r14p12----12-----------------------------------------|
B|-------------14----14p12----14-12\9----12-9----------------|
G|-------------------------13---------11------11-------------|
D|-----------------------------------------------------------|
A|-----------------------------------------------------------|
E|-----------------------------------------------------------|

E|-----------14----------------------------------------------|
B|-/14-16-17----19b21-16b17-17r16-14~--19b21-16b17-17r16-14~-|
G|-----------------------------------------------------------|
D|-----------------------------------------------------------|
A|-----------------------------------------------------------|
E|-----------------------------------------------------------|

E|-------16-20-------16-20-------16-20-----------------------|
B|-19b21-------19b21-------19b21-------19b21r19b21~~\--------|
G|-----------------------------------------------------------|
D|-----------------------------------------------------------|
A|-----------------------------------------------------------|
E|-----------------------------------------------------------|

        F#  E  D#  C#  D#  C#  C  A  G# 
Coraçã-----------------------------------o
    C#m                   F#m/A             A9/C#
Coração, por três dias Jesus parou de respirar
             G#7(4)     G#
Pra fazer você ressuscitar
     C#m                F#m/A
Tudo bem, de carne você é
                  A9/C#
Mas sua estrutura é a fé
           G#/D#
Coração valente você não pode parar

    C#m                F#m/E                A9/C#
Coração, por três dias Jesus parou de respirar
             G#7(4)     G#7
Pra fazer você ressuscitar
     C#m                F#m/E
Tudo bem, de carne você é
                  A9/C#
Mas sua estrutura é a fé
           G#7(4)    G#/C       A9     B4      C#m9
Coração valente você não pode para---------r  ahhh
Composición de Anderson Freire
3.475 vistas
  • Simplificar cifrado
    • ½ Tono
    • Am
    • Bbm
    • Bm
    • Cm
    • C#m
    • Dm
    • Ebm
    • Em
    • Fm
    • F#m
    • Gm
    • G#m
  • Agregar a la lista

    0 comentarios

    Ver todos los comentarios
    00:00 / 00:00
    Outros vídeos desta música
    Repetir Calidad Automático
    Outros vídeos desta música
    00:00 / 00:00
    Automático
    OK