Cifra Club

Primeira Essência

Anderson Freire

Tablatura: Principal
reproducciones 384
Tono: E
Introdução: E  B11/D#  A9  E  F#m7(11)  E/G# A9

E|---------------------------------------|
B|-----------9-10--10p9--9--12-12/14-----|
G|-9----11-------------------------------|
D|---9-----------------------------------|
A|---------------------------------------|
E|---------------------------------------|

E|--12-12--------------------------------|
B|-------10-12-----10--12----------------|
G|-----------9-11------------------------|
D|---------------------------------------|
A|---------------------------------------|
E|---------------------------------------|

Primeira parte:
E    B11/D#  A9             E/G#
E__stou         no  meu jardim
A9             E
   Tranquei a porta
F#m7(11)           B4
         Abri meu coração
 E    B11/D#  A9           E/G#
Re__guei          minhas raízes
A9             E
   Com minhas lágrimas
F#m7(11)            B4
         Gotas de adoração

Segunda parte:
A9                           B4
   Senhor não quero que meus olhos
 E               A9
Percam o brilho do primeiro amor
F#m7(11)                         B11/D#
        Não quero que em mim se perca
A9                  B4
O  desejo de te adorar

Refrão:
 E   B11/D#  C#m7          B4   A9           E/G#
Vem Senhor,       e me resgata     todos os dias
F#m7(11)          B4
        Só pra Te adorar
  E   B11/D#  C#m7                B4
Que__ro      ser      seu bom perfume
A9            E/G#
  Primeira essência
 F#m7(11)            B4  E
Teu       jardim particular

Interlúdio: B11/D#  A9  E  F#m7(11)  E/G# A9

E|-----------------------------------------|
B|-----------9-10--10p9--9--12-12/14-------|
G|-9----11---------------------------------|
D|---9-------------------------------------|
A|-----------------------------------------|
E|-----------------------------------------|

E|--12-12----------------------------------|
B|-------10-12-----10--12------------------|
G|-----------9-11--------------------------|
D|-----------------------------------------|
A|-----------------------------------------|
E|-----------------------------------------|

Primeira parte:
E    B11/D#  A9             E/G#
E__stou         no  meu jardim
A9             E
   Tranquei a porta
F#m7(11)           B4
         Abri meu coração
 E    B11/D#  A9           E/G#
Re__guei          minhas raízes
A9             E
   Com minhas lágrimas
F#m7(11)            B4
         Gotas de adoração

Segunda parte:
A9                           B4
   Senhor não quero que meus olhos
 E               A9
Percam o brilho do primeiro amor
F#m7(11)                         B11/D#
        Não quero que em mim se perca
A9                  B4
O  desejo de te adorar

Refrão:
 E   B11/D#  C#m7          B4   A9           E/G#
Vem Senhor,       e me resgata     todos os dias
F#m7(11)          B4
        Só pra Te adorar
  E   B11/D#  C#m7                B4
Que__ro      ser      seu bom perfume
A9            E/G#
  Primeira essência
 F#m7(11)            B4  A9  B4
Teu       jardim particula______r

Ponte:
 C#m7
Te  adoro
 A9
Te  adoro

E
  Vem sobre mim, Senhor! Vem sobre mim, Senhor!
B4
   Vem sobre mim, Senhor!

 C#m7
Te  adoro
 A9
Te  adoro

E
  Vem sobre mim, Senhor! Vem sobre mim, Senhor!
B4                            A9
   Vem sobre mim, Senhor! Senhor

Refrão:
 E   B11/D#  C#m7          B4   A9           E/G#
Vem Senhor,       e me resgata     todos os dias
F#m7(11)           B4
         Só pra Te adorar
  E   B11/D#     C#m7             B4
Que__ro      ser      seu bom perfume
A9             E/G#
   Primeira essência
 F#m7(11)            B4  A9  B4  E
Teu       jardim particular

0 comentarios

    mostrar más comentarios

    ¿Conseguiste tocar?

    26tocaron0aún no

    ¡Graba un vídeo tocando Primeira Essência y envianoslo!

    00:00 / 00:00
    outros vídeos desta música
    repetirqualidadeautomática
    Outro vídeos desta música
      00:00 / 00:00
      automática
      OK