Enviar cifraEntrar

Milagre

André Valadão

Acordes: Principal
reproducciones 270
Tono: C
Intro: Am7  G/B  C9  C/E  F  Am7  G/B  F Dm7


E|--------------------------------------------------|
B|--------------------------------------------------|
G|-2/5-4-5---2/5-4-5-5/7--5-4-5-4-5-----------------|
D|----------------------------------5--5/7----------|
A|--------------------------------------------------|
E|--------------------------------------------------|


E|--------------------------------------------------|
B|---------------8-6-5------------------------------|
G|-2/5-4-5-----5-------7-5-7b9-5---7----------------|
D|---------5-7------------------7-------------------|
A|--------------------------------------------------|
E|--------------------------------------------------|


E|----------------------7-8--10-8-7-----------------|
B|--------------------8-------------8---------------|
G|----------------7/9-----------------7-5-----------|
D|-----------9/10-----------------------------------|
A|------7-10----------------------------------------|
E|--7/8---------------------------------------------|


      

E|---------5/8---------------------------------------|
B|-8-6-5---------------------------------------------|
G|---------------------------------------------------|
D|---------------------------------------------------|
A|---------------------------------------------------|
E|---------------------------------------------------|


Am9              Am9/G
Posso crer que em minha vida
          F/C         C9
O milagre vai acontecer
      Am9      Am9/G
Posso ver as promessas             (2x)
         F/C           C9/E
Sendo liberadas sobre mim
        Dm7         G4 G
Sendo liberadas sobre mim

              F   G     Am7  (na 2ª vez: Am7 G/B C9)
Hoje o meu milagre vai chegar
C9/E            F   G   Am7
Eu vou crer, não vou duvidar
    C/E         F    G       Am7
O preço que foi pago ali na cruz
   G/B F/A          G4 G
Me dá vitória nesta hora

Solo: F  G4  F/A G/B  Dm7  C/E  F  G Am7  G/B

    Am7        Am7/G
Tua morte, tua cruz, teu sangue
     F         C9
Derramado no calvário
       Am7           Am7/G
Está selado, foi consumado
          F          C9/E
Vivo, hoje livre do pecado
           Dm7          G4  G
Vivo as promessas dos milagres

             F   G     Am7
Hoje o meu milagre vai chegar
C9/E            F   G    Am7
Eu vou crer, não vou duvidar
        C/E     F     G       Am7
O preço que foi pago ali na cruz
   G/B   F/A        G/B
Me dá vitória nesta hora
       F/C          Gsus (Bb9  Gsus Bb9 Gsus)
Me dá vitória nesta hora

Solo 2:


E|----------------------------------------------------------------------|
B|-8/10-10-10-12-12--10-10-12-12--13--12--13--12--12--13--13-13---------|
G|----------------------------------------------------------------------|
D|-5/7--7---7--9---9---7---7--9--9---10---9---10---9---9---10--10--10---|
A|----------------------------------------------------------------------|
E|----------------------------------------------------------------------|


E|--------------------------------------------------------------------------------|
B|-15--15--13--13--15--15---15-----8/10---10--10---------10----8------------------|
G|----------------------------------------------------------7^^-------9------7^-5-|
D|-12--12--10--10--12--12---12-----5/7----7---7-----------------------------------|
A|--------------------------------------------------------------------------------|
E|--------------------------------------------------------------------------------|


E|------------------------------------------------------|
B|------------------------------------------------------|
G|-----5/7-5--------------------------------------------|
D|--7---------7--5-5/7-5----5/7-5-----------------------|
A|--------------------------7--------7--5--3----3/5-----|
E|----------------------------------------------5-------|


Am7  G/B   C9 Dm7 C/E  F     G      Am7
Hoje  o    me______u milagre vai chegar
                  F   G    Am7
Eu vou crer, não vou duvidar
  C/E           F    G       Am7
O preço que foi pago ali na cruz
   G/B  F/A         G
Me dá vitória nesta hora

C/E          Am7   G/B    C9
Hoje o meu milagre vai chegar
C9/E              F   G    Am7
Eu vou crer, não vou duvidar
        C/E      F    G       Am7
O preço que foi pago ali na cruz
   G/B  F/A        G/B
Me dá vitória nesta hora
       F/C          Gsus
Me dá vitória nesta hora
        Am7        G/B
Me dá vitória nesta hora
        F/C        Gsus
Me dá vitória nesta hora
      F/A          G/B
Me dá vitória nesta hora
        F/C        Gsus
Me dá vitória nesta hora
        Am7         G/B
Me dá vitória nesta hora
        Bb9    Eb9    C9
Me dá vitória

Riff 2x:

E|----------------------|
B|-6-5-6--6-8-----------|
G|-5-5-5--5-7-----------|
D|-3-2-3--3/5-----------|
A|----------------------|
E|----------------------|
  • 1
  • 2
  • 3
  • 4
  • 5
  • 6
  • 7
  • 8
  • 9
  • 10
  • 11
  • 12
    Acordes para:
      Composición: André ValadãoColaboración y revision:

      0 comentarios

        mostrar mas comentarios

        ¿Conseguiste tocar?

        12tocaron0aún no

        ¡Grave un vídeo tocando Milagre y envie para nosotros!

        00:00 / 00:00
        outros vídeos desta música
        repetirqualidadeautomática
        • automática
        Outro vídeos desta música
          00:00 / 00:00
          automática
          • automática
          Acordes para:guitarra
          dificuldadreproduccionescontribuciones
          1 versión de Guitar Proformatodownloadscontribución
          cerrarplay/pause subir/bajar velocidad
            acordes
            cerrar
            OK
            Feedback