Cifra Club

Amor Tão Lindo

Andréa Fontes

Cifrado: Principal (guitarra y guitarra eléctrica)
tono: E
[Intro] F#m  A  E  F#m  A  E

E|----------------------------------------------------------------------------------|
B|--5--7-7b9r7-------5--7-7b9r7----5--7-7b9r7----7b8r7--5---------------------------|
G|------------6~~--------------4~~-----------6~~----------6--6/4---2~--/4~--/6--5---|
D|----------------------------------------------------------------------------------|
A|----------------------------------------------------------------------------------|
E|----------------------------------------------------------------------------------|

   F#m   A        E
Mataram Jesus, o filho de Deus
   F#m     A
Colocaram em uma cruz
   E   E4
Como ele sofreu
        F#m         A
Uma lança cravaram em seu lado
      E   A  E
Uma coroa de espinhos lhe colocaram
        F#m           A      E   A   E
Como sofreu meu Jesus, mataram o filho de Deus

F#m      A      E
Amor tão lindo, amor tão puro de meu Jesus
    F#m
Sofreu na cruz para salvar a humanidade
A            E
Ele trouxe a este mundo a sua luz

[Solo] F#m  A  E  F#m  A  E  A  E

E|----------------------------------------------------------------------------------|
B|--5--7-7b9r7-------5--7-7b9r7----5--7-7b9r7----7b8r7--5---------------------------|
G|------------6~~--------------4~~-----------6~~----------6--6/4---2~--/4~--/6--5---|
D|----------------------------------------------------------------------------------|
A|----------------------------------------------------------------------------------|
E|----------------------------------------------------------------------------------|

      A         E   A  E
Como cordeiro mudo, lá estava o meu Jesus
        A        E  A  E
Crucificaram em uma cruz, o Filho, o Filho de Deus
                A
Uma lança cravaram em seu lado
       E   A  E
Uma coroa de espinhos lhe colocaram
        A       E   A  E
Como sofreu meu Jesus, mataram o Filho de Deus
A           E
Amor tão lindo, amor tão puro de meu Jesus
    A
Sofreu na cruz para salvar a humanidade
          E    A  E
Ele trouxe a este mundo a sua luz
00:00 / 00:00
Otros videos de esta canción
Repetir
Otros videos de esta canción
Composición de Ev. Eudes Morais
Colaboración y revisión:
  • Gabriel.Goncal.Freitas
  • Edjarde Araújo
640 vistas
    • ½ Tono
    • A
    • Bb
    • B
    • C
    • Db
    • D
    • Eb
    • E
    • F
    • F#
    • G
    • Ab
  • Agregar a la lista

    0 comentarios

    Ver todos los comentarios
    00:00 / 00:00
    OK