Cifra Club

Si Te Dijeras

Andrés Cabas

Cifrado: Principal (guitarra y guitarra eléctrica)
tono: C
E|--------------------------------------------|
B|--------------------------------------------|
G|---------------4--5-------------------------|
D|-------5--3-2-------------------------------|
A|--------------------------------------------|
E|--------------------------------------------|

       C             F           G
E|-------------/-----------/------------------|
B|------5-5----/--------1--/--------3---------|
G|------5-5----/--------2--/--------4---------|
D|------5-5----/--------3--/--------5---------|
A|--3-3--------/-----------/------------------|
E|-------------/----1-1----/----3-------------|

C
Si te dijera
           F         G       C
Que puedo vestir la noche de día
          F       G         Am
Y así no sales corriendo mi vida
           F
Valdría la pena
                           G
Decirte todo sin guardarme nada

      C
Si te dijera
           F         G          C
Que puedes ser tan fría como el viento
        F     G          Am
Yo te diría ven yo te caliento
           F
Si te asustaras
                               G
Porque mi amor para ti es demasiado
        Dm
Y me dejaras
       F         G         C
Preferiría no haber dicho nada

          F
[Si te dijera]
         C             F             C
Si te dijera [Si te dijera, Si te dijera]
         F               G
Si te dijera [Si te dijera]

C
Si te dijera
             F        G      C
Que si me escondo vendrás a buscarme
          F       G         Am
Y con guitarras vendrás a cantarme
           F
Si te quedaras
                      G
Por las razones equivocadas
         Dm
Ay qué problema
       F         G         C
Preferiría no haber dicho nada

          F
[Si te dijera]
         C             F             C
Si te dijera [Si te dijera, Si te dijera]
         F               G
Si te dijera [Si te dijera]

           F
Si te asustaras
                              G
Porque mi amor para ti es demasiado
         Dm
Y me dejaras
       F         G         C
Preferiría no haber dicho nada
00:00 / 00:00
Otros videos de esta canción
Repetir
Otros videos de esta canción
Compositor no encontrado.
Colaboración y revisión:
  • Denise Maria
32 vistas
    • ½ Tono
    • A
    • Bb
    • B
    • C
    • Db
    • D
    • Eb
    • E
    • F
    • F#
    • G
    • Ab
  • Agregar a la lista

    0 comentarios

    Ver todos los comentarios

    ¿Lograste tocar?

    0 Tocaron 0 Aún no

    ¡Graba un video tocando Si Te Dijeras y envíanoslo!

    00:00 / 00:00
    OK