Cifra Club

Flaca

Andrés Calamaro

Chords: Principal (acoustic and electric guitars)
tone: G
[Intro] G  B7  Em  C
        G  D  G  D

E|--------------------------------------------|
B|-3----------3-4---------4-5-----------3-----|
G|----4-2---4-----4-2---4-----4-2---2-4---5-5-|
D|--------5-----------5-----------5-----------|
A|--------------------------------------------|
E|--------------------------------------------|

E|--------------------------------------------|
B|---3-----------3----------------------------|
G|-4---4-2---2-4----4-2-----------------------|
D|---------5------------5---------------------|
A|--------------------------------------------|
E|--------------------------------------------|

[Refrão] 

    G            B7
Flaca, no me claves
         Em               C
Tus puñales, por la espalda
           G            D
Tan profundo, no me duelen
             G  D
No me hacen mal

   G              B7
Lejos, en el centro
           Em         C
De la tierra, las raíces
      G              D
Del amor, donde estaban
      G  D
Quedaran

[Primeira Parte] 

G
Entre no me olvides
      B7
Me deje nuestros abriles
     Em
Olvidados
                    C
En el fondo del placard
                   G
Del cuarto de invitados
                D
Eran tiempos dorados
             G  D
Un pasado mejor

        G
Aunque casi me equivoco
      B7
Y te digo poco a poco
        Em
No me mientas
                   C
No me digas la verdad
                 G
No te quedes callada
                D
No levantes la voz
                G  D
Ni me pidas perdón
        G
Aunque casi te confieso
        B7
Que también he sido un perro
     Em
Compañero
            C              
Un perro ideal
                   G
Que aprendió a ladrar
                 D
Y a volver al hogar
              G  D
Para poder comer

[Refrão] 

    G            B7
Flaca, no me claves
         Em               C
Tus puñales, por la espalda
           G            D
Tan profundo, no me duelen
             G  D
No me hacen mal

   G              B7
Lejos, en el centro
           Em         C
De la tierra, las raíces
      G              D
Del amor, donde estaban
      G  D
Quedaran

[Solo] G  B7  Em  C 
       G  D  G  D 
       G  B7  Em  C 
       G  D  G  D
       G  B7  Em  C 
       G  D  G  D 
       G  B7  Em  C 
       G  D  G  D 
       G  B7 Em  C 
       G  D  G  D
       G  B7 Em  C 
       G  D  G  D

E|--------------------------------------------|
B|-3----------3-4---------4-5-----------3-----|
G|----4-2---4-----4-2---4-----4-2---2-4---5-5-|
D|--------5-----------5-----------5-----------|
A|--------------------------------------------|
E|--------------------------------------------|

E|--------------------------------------------|
B|---3-----------3----------------------------|
G|-4---4-2---2-4----4-2-----------------------|
D|---------5------------5---------------------|
A|--------------------------------------------|
E|--------------------------------------------|

E|---------------------------2----------------|
B|-------------------5--4-4-----5-5------3----|
G|---------2-5--4-4------------------2-4---5-5|
D|---2-4-5------------------------------------|
A|-5------------------------------------------|
E|--------------------------------------------|

E|---------3----------2-----------------------|
B|-------3----------3-------------------------|
G|-2-4-4------4-2-2-----2---------------------|
D|------------------------5-------------------|
A|--------------------------------------------|
E|--------------------------------------------|
00:00 / 00:00
Other videos of this song
Repeat
Other videos of this song
127.882 views
    • ½ Tone
    • A
    • Bb
    • B
    • C
    • Db
    • D
    • Eb
    • E
    • F
    • F#
    • G
    • Ab
  • Add to list

Afinação da cifra

Afinador online

    00:00 / 00:00
    OK