Cifra Club

Amor Gitano

Andrés Cepeda

Cifrado: Principal (guitarra y guitarra eléctrica)
Selo Cifra Club: esta cifra foi revisada para atender aos critérios oficiais da nossa Equipe de Qualidade.
tono: G
ENTRADA EN GUITARRA (DUO) 
E-7-8-7-5-3-5-3-2-0--- 
B-8-10-8-7-5-7-5-4-0-- 
G|------------------------------------------- 
D|------------------------------------------- 
A|------------------------------------------- 
E|------------------------------------------- 

E|-7-7-7-7-8-8-8-7-7---------------7-7-7--------------------------------------2-2-S-7-7- 
B|----------------------10-10-10-10-------10-10-8-8-8-8-10-10-10-8-8-7--4-4-S-8-8------- 
G|-------------------------------------------------------------------------------------- 
D|-------------------------------------------------------------------------------------- 
A|-------------------------------------------------------------------------------------- 
E|-------------------------------------------------------------------------------------- 

En esta parte se hace por cada nota plumada doble 

E-7-8-10-10-12-10-8-10-8-7- 
B|------------------------------------------------------- 
G|------------------------------------------------------- 
D|------------------------------------------------------- 
A|------------------------------------------------------- 
E|------------------------------------------------------- 

E-7-8-7--------------------------------------
B|---------------10-8-10-8-7----------------- 
G|----------------------------------------9-- 
D|------------------------------------------- 
A|------------------------------------------- 
E|------------------------------------------- 

ESTROFA I 
 Em                     B7   Am            B7               Em 
Ayer te vi pasar con el de brazo y sin que lo notaras te seguí los pasos 
 Em                D             G      Am              C               B7 
Ayer pude comprobar que tu me fingías después que me juraste que no lo querías 

CORO: 
 Em         B7             Em               B7                  Em 
Toma este puñal córtame las venas quiero desangrarme hasta que me muera 
             D                  G                 B7             Em 
No quiero la vida si he de verte ajena pues sin tu cariño no vale a pena 

E|----------7--10--8--7--------- 
B|------8--8--12--10-8---------- 
G|--9--9------------------9----- 
D|--9-----------------9--------- 
A|------------------------------ 
E|------------------------------ 

E|-7-7-7-7-8-8-8-7-7---------------7-7-7--------------------------------------2-2-S-7-7- 
B|----------------------10-10-10-10-------10-10-8-8-8-8-10-10-10-8-8-7--4-4-S-8-8------- 
G|-------------------------------------------------------------------------------------- 
D|-------------------------------------------------------------------------------------- 
A|-------------------------------------------------------------------------------------- 
E|-------------------------------------------------------------------------------------- 

En esta parte se hace por cada nota plumada doble 

E-7-8-10-10-12-10-8-10-8-7- 
B|------------------------------------------------------- 
G|------------------------------------------------------- 
D|------------------------------------------------------- 
A|------------------------------------------------------- 
E|------------------------------------------------------- 

E-7-8-7--------------------------------------
B|---------------10-8-10-8-7-----------------
G|----------------------------------------9-- 
D|------------------------------------------- 
A|------------------------------------------- 
E|-------------------------------------------

ESTROFA II 
   Em                         B7 
Porque, dime porque, me has engañado 
    Am                 B7             Em 
Si todo lo que tu has querido te lo he dado 
   Em              D           G 
Porque te burlas de mi amorcito mío 
    Am                      C                    B7 
Porque después que te he querido me das tan mal pago 

CORO: 

ESTROFA II 

CORO: (BIS) 

El ritmo se debe hacer así por cada compás de cuatro tiempos: 
-ABAJO-ARRIBA-APAGADO-ABAJO-ARRIBA-APAGADO- 
-ABAJO-ARRIBA-ABAJO-ARRIBA- APAGADO- 
-ABAJO-ARRIBA-APAGADO- 
-ABAJO-ARRIBA-ABAJO-ARRIBA- APAGADO- 
-ABAJO-ARRIBA-APAGADO- 
-ABAJO-ARRIBA-ABAJO-ARRIBA- APAGADO- 
-ABAJO-ARRIBA-APAGADO-ABAJO-ARRIBA- 
Otros videos de esta canción
    855 exhibiciones
      • ½ Tono
      • A
      • Bb
      • B
      • C
      • Db
      • D
      • Eb
      • E
      • F
      • F#
      • G
      • Ab
    • Agregar a la lista

    Afinação da cifra

    Afinador online

      Ops (: Contenido disponible solo en portugués.
      OK