Cifra Club

Ciertas cosas

Andrés Cepeda

Cifrado: Principal (guitarra y guitarra eléctrica)
Selo Cifra Club: esta cifra foi revisada para atender aos critérios oficiais da nossa Equipe de Qualidade.
tono: C#m
E|---4--5--7--7--7^9^--7---7--7--7--7---7--5--4----------4----------4--|
B|---4--5--7--7--7-----7---7--7--7--7---7--------5------5-----5----5---|
G|--------------------------------------------------6--6----------6----|
D|---------------------------------------------------------------------|
A|---------------------------------------------------------------------|
E|---------------------------------------------------------------------|


E|-------------------------7---------------|
B|---5--------------------7----------------|
G|---------------9-------9-----------------|
D|------------9-----9---9------------------|
A|--------9--------------------------------|
E|-----------------------------------------|


     E*                 B/F#
Soportando crecer aprendí que el perder
     A          Am          Amaj7    E*   E
hace parte de pagar la vida cuotas
       E                 B
cuando la realidad ya se puede palpar
     A                         Am
y te vas despertando a ciertas cosas

       E*             B/F#
Vas perdiendo amistad mucho tiempo quizás
      A                                Am
hasta cuando te encuentres frente a la vida
        E                   B
alguien dijo una ves que el amor es un adiós
          A     Am
que no termina


        C#m                  C#m7
Y me perdí en su mirar sin poder
              Amaj7     Am  Am/F#
despertar regale mi corazón
       E                    B
fui perdiendo amistad mucho tiempo quizás
      A                               Am
hasta cuando me encontré  frente a la vida


        E                   B                          Amaj7
Alguien dijo una ves que el amor es un adiós que no termina
        A                    Am           B            E
alguien dijo una ves que el amor es un adiós que no termina.
Otros videos de esta canción
    272 exhibiciones
      • ½ Tono
      • Am
      • Bbm
      • Bm
      • Cm
      • C#m
      • Dm
      • Ebm
      • Em
      • Fm
      • F#m
      • Gm
      • G#m
    • Agregar a la lista

    Afinação da cifra

    Afinador online

      Ops (: Contenido disponible solo en portugués.
      OK