Cifra Club

El Carpintero

Andrés Cepeda

Cifrado: Principal (guitarra y guitarra eléctrica)
Selo Cifra Club: esta cifra foi revisada para atender aos critérios oficiais da nossa Equipe de Qualidade.
tono: F#m
Intro: Riff #1


(69-67-65-64) Entra canción.
    F#m                                              C#7
Yo tuve un amor que en mi corazón trazo marcas negras, y de la viruta que
                           F#m
Ahí quedo nacieron mis penas. (X2)


    F#m                                C#7
Cepillo para pulir angustias de mi alma, serrucho para cortar amor que
                F#m
Duele y que daña. (X2)



Solo: (Guitarra) (Riff #2)


    F#m                                    C#7
Carpintero de tu piel, ebanista de tu aliento, mi martillo y mi cincel,
                    F#m
Van labrando mi lamento, las rumbas en mi taller, mis amigos mi
         C#7                                              F#m
Herramienta, donde estará mi mujer mi madera en la experiencia.

                    C#7                      F#m
¡Ay san pedro ampáralo! ¡Ay san pedro ampáralo!  (Hasta el final)



Riff #1
         F#m                    C#7
E|------------------| E|-------------------
B|-----2-----2---2--| B|------5-----5------
G|---2-----2--------| G|----3-----3-----3--
D|------------------| D|-------------------
A|-------5-----4----| A|--------5-----4----
E|--2---------------| E|-4-----------------


Solo: (Guitarra) (Riff #2)

E|--2--5--4--7--4-5-2-----------------2-----5--4--2-1-4~~~~--|
B|---------------------2--5--4--3--2--2--2-------------------|
G|-----------------------------------------------------------|
D|-----------------------------------------------------------|
A|-----------------------------------------------------------|
E|-----------------------------------------------------------|

E|--1--2--4--2--1--4--2--1-----0-1-2-3------1--4--2--1--4--2--|
B|----------------------------------------2-------------------|
G|--------------------------------------4---------------------|
D|------------------------------------------------------------|
A|------------------------------------------------------------|
E|------------------------------------------------------------|
Otros videos de esta canción
    5.136 exhibiciones
      • ½ Tono
      • Am
      • Bbm
      • Bm
      • Cm
      • C#m
      • Dm
      • Ebm
      • Em
      • Fm
      • F#m
      • Gm
      • G#m
    • Agregar a la lista

    Afinação da cifra

    Afinador online

      Ops (: Contenido disponible solo en portugués.
      OK