Cifra Club

El Guitarro

Andrés Cepeda

Cifrado: Principal (guitarra y guitarra eléctrica)
Selo Cifra Club: esta cifra foi revisada para atender aos critérios oficiais da nossa Equipe de Qualidade.
tono: A
[Tab - Intro]

              E                         A
E|------------------0-----4--4-4-2-0-------------------------|
B|--2--3--5---7--5--------------------3-3----2---------------|
G|-2--4--6---7--6--1---2/4--4-4-2-1--------------------------|
D|-----------------------------------4-4--1/2----------------|
A|-----------------------------------------------------------|
E|-----------------------------------------------------------|
                           E     D   E        A            E
E|---5--7--9--9-9-7-5--5----0---2---4-2-0--------------2---0-|
B|----------------------------------------3--2--3/5----------|
G|--6--7--9--9-9-7-6--6----1---2---4-2-1----2--4/6----2---1--|
D|---------------------------------------4-------------------|
A|-----------------------------------------------------------|
E|-----------------------------------------------------------|

( E7  A )

   A                           E
Limpiando de recuerdos nuestro cuarto
                            A
Yo encontré tirado en un rincón
                           E
Aquel viejo guitarro que dejaste
                                  A
Después de alguna fiesta y se olvido

                          E
Con el acompañabas tus canciones
                             A
Y hacías llorar mi pobre corazón
                              E
Sus leños guardan viejos lagrimones
                         A
Nacidos de tus ojos y mi amor

                E
Y ahora voy a tocar al saber que no estas
        A
Tu despedida
                E
Y si me oyen cantar cuenta se van a dar
             A
De aquella herida

                D  E                 A
Y le voy a arrancar las cuerdas y tu nombre
                E                      E7
Para ver si por fin ya no vuelvo a escuchar
             A
Ese maldito acorde (BIS)

Y ahora voy a tocar al saber que no estas
        A
Tu despedida
                E
Y si me oyen cantar cuenta se van a dar
             A
De aquella herida

                D  E                 A
Y le voy a arrancar las cuerdas y tu nombre
                E                      E7
Para ver si por fin ya no vuelvo a escuchar
             A
Ese maldito acorde(BIS)
Otros videos de esta canción
    1.583 exhibiciones
      • ½ Tono
      • A
      • Bb
      • B
      • C
      • Db
      • D
      • Eb
      • E
      • F
      • F#
      • G
      • Ab
    • Agregar a la lista

    Afinação da cifra

    Afinador online

      Ops (: Contenido disponible solo en portugués.
      OK