Cifra Club

Embrujo

Andrés Cepeda

Cifrado: Principal (guitarra y guitarra eléctrica)
Selo Cifra Club: esta cifra foi revisada para atender aos critérios oficiais da nossa Equipe de Qualidade.
tono: G
[Intro] C#7  F#m  E  D  C#7  


E|-9-9-7----------7-10-9-7-10-9-7-9---------------------12--10-|
B|-------10-9----9-----------------10-10-12-12-10-9-9-12-------|
G|-------------10----------------------------------------------|
D|-----------10------------------------------------------------|
A|-------------------------------------------------------------|
E|-------------------------------------------------------------|


E|-12-13-12-10-9--9-10-9-7---------------------------|
B|--------------------------------10-9-7-6-7-9-7--------|
G|----------------------------------------------------------|
D|----------------------------------------------------------|
A|----------------------------------------------------------|
E|----------------------------------------------------------|


  F#m 
No sé mi negrita linda  
                              C#7 
que es lo que tengo en el corazón 

que ya no como ni duermo 
                          F#m 
si no pensando solo en tu amor 

hay muchos que me aconsejan 
          F#7                Bm 
que te abandone que me haces mal 
                   F#m   
y  yo no se lo que pasa  
         C#7           F#m 
que cada día te quiero más. 

F#m  E  D    C#7 
Y    mu-chos-dicen lo mismo 
            F#m 
Que tu me estás embrujando  
                  E 
Que tú a mi me estás acabando    
             A         F#7 
Que yo ya no sirvo pa’na 
          Bm              E 
Que ya no soy ni mi sombra 
             A             F#m 
Que me ven y no me conocen 
              E       D         E  
Que mi mal no tiene remedio que ya 
                  A 
Yo me perdí... 

F#m                   E       D         C#7 
        Que mi mal no tiene remedio que ya 
                   F#m  F#m  
         Yo me perdí...
Otros videos de esta canción
    9.867 exhibiciones
      • ½ Tono
      • A
      • Bb
      • B
      • C
      • Db
      • D
      • Eb
      • E
      • F
      • F#
      • G
      • Ab
    • Agregar a la lista

    Afinação da cifra

    Afinador online

      Ops (: Contenido disponible solo en portugués.
      OK