Cifra Club

Me Voy

Andrés Cepeda

Cifrado: Principal (guitarra y guitarra eléctrica)
Selo Cifra Club: esta cifra foi revisada para atender aos critérios oficiais da nossa Equipe de Qualidade.
tono: Em
   B7            Em*
E|1|----2/3--3-2------0---------|
B|2|----0-------------0---------|
G|3|----2-------------0---------|
D|4|----1-------------0---------|
A|5|----2-------------2---------|
E|6|----x-------------0---------|

Em Cmaj7  Am7      B7        Em    Cmaj7
Me voy,    dejando todo lo que te di,
Am7        B7       Em    Cmaj7
  me voy dejando la vida aquí,
 Am7       B7       Em  Cmaj7  Am7  B7
me voy llorando en calma...


Em Cmaj7  Am7       B7          Em   Cmaj7
Me voy     estoy borracho y voy a decir,
Am7  B7                Em   Cmaj7
que nunca pude ser lo que fui
Am7         B7       Em  Cmaj7 Am7 Em*
que estoy pagando un carma...

E|E|--Coro--||

   Am7*  Dsus  D/F#  Em/G  F#/A  B7*  F#*
E|1|--3------3----3------3-----5----0----0----|
B|2|--1------3----3------3-----0----0----0----|
G|3|--0------2----0------0-----0----2----0----|
D|4|--2------0----0------2-----4----1----0----|
A|5|--------------0------2-----2----2----0----|
E|6|--------------2------0-----x----x----2----|

Am7       Am7*        Dsus    D    G     D/F#           Em/G  F#/A
 Pero no quiero que olvides que yo te seguí   hasta el mar
Am7        Am7*        B7       B7*     Em    F#/A
Y una canción fue el amor, que nunca hicimos,
Am7      Am7*        Dsus    D     G    D/F#     Em/G
 Me voy porque nunca viste que la luna era   mi alma
F#*    Am7  B7
Cuando yo    te la regalaba.

Intro: Em Cmaj7 Am7 B7 x2

--Versos--

     B7             Em*
E|1|----2/3--3-2-------0--------|
B|2|----0--------------0--------|
G|3|----2--------------0--------|
D|4|----1--------------0--------|
A|5|----2--------------2--------|
E|6|----x--------------0--------|

Em Cmaj7 Am7     B7               Em   Cmaj7
Me voy,   te ame con todo pero no hay más
Am7       B7        Em    Cmaj7
  Mi corazón tiene que parar,
 Am7    B7      Em  Cmaj7 Am7 B7
Me voy para salvarme...

Em Camj7 Am7          B7             Em    Cmaj7
Me voy,   si en tus bolsillos ya no hay lugar
Am7     B7      Em         Cmaj7
  Para el amor que te quise dar
Am7    B7        Em Cmaj7 Am7  Em*
No  volveré a besar te...

E|E|--Coro--||

   Am7*  Dsus  G* D/F#* Em/G  F#/A*  D/F#  Em/G  F#*
E|1|--3------3---0---0------3-----5-----3-----3-----0--|
B|2|--1------3---3---0------3-----0-----3-----3-----0--|
G|3|--0------2---0---0------0-----0-----0-----0-----0--|
D|4|--2------0---0---0------2-----4-----0-----2-----0--|
A|5|--0----------0---0------2-----x-----0-----2-----0--|
E|6|-------------3---2------0-----x-----2-----0-----2--|

Am7       Am7*        Dsus    D    G*    D/F#*          Em  F#/A*
 Pero no quiero que olvides que yo te seguí   hasta el mar
Am7                     B7               Em    Em7  Em
  Y una canción fue el amor, que nunca hicimos,
Am7                   D    Dsus    G    D/F#     Em/G
 Me voy porque nunca viste que la luna era   mi alma
F#*     Am7  B7
Cuando yo     te la regalaba...

--Puente--

     F#/A    B7
E|1|----5-------2/3--3-2--------|
B|2|----0-------0---------------|
G|3|----0-------2---------------|
D|4|----4-------1---------------|
A|5|----2-------2---------------|
E|6|----x-------x---------------|

Intro: Em  F#/A  Em7  F#/A ----] Arpegio
       Em Cmaj7 Am7 B7 x2  ----] Rasgueo

          Em  Cmaj7 Am7       B7
Te la regalaba,      te la regalaba,
       Em          Cmaj7
Yo te di el Sol, Yo te di el  mar,
            Am7       B7
Yo te di el Cielo corazón,
   Em      Cmaj7            Am7
te di la Luna,   la Luna te di,
B7        Em    Cmaj7            Am7
    te di la  Luna,   la Luna te di,
  B7            Em    Cmaj7            Am7
y yo te la regalaba y tu    nunca me llamabas
  B7             Em      Cmaj7               Am7
y yo siempre te buscaba      pero tu te me escapabas
         B7    Em     Cmaj7
de algún modo te la daba,
Am7     B7   Em  Cmaj7
  te la regala  ba
Otros videos de esta canción
    6.377 exhibiciones
      • ½ Tono
      • Am
      • Bbm
      • Bm
      • Cm
      • C#m
      • Dm
      • Ebm
      • Em
      • Fm
      • F#m
      • Gm
      • G#m
    • Agregar a la lista

    Afinação da cifra

    Afinador online

      Ops (: Contenido disponible solo en portugués.
      OK