Cifra Club

Me Voy

Andrés Cepeda

Cifrado: Principal (guitarra y guitarra eléctrica)
tono: Em
INTRO:


  Em    C    Am    B7    Em      C    Am     B7
E|-0------0-----0--------/-0*-0-----0----0-------|
B|---0-----1--1--1--3-1--/-0---0--1--1-1--1---3--|
G|-----0------2-----2-2--/-0------0----2------2--| X2
D|-----------------------/-2----------------1----|
A|-------3----0----2-----/-2------3----0---2-----|
E|-0---------------------/-0---------------------|

*es un rasgueo hacia abajo, no todas las notas al mismo tiempo.




El solo en la mitad de la canción es así:

E|-----3---2-0---------------------------------------------------|
B|-0-0---4-----0-3-1-1--0---------------------7-8-7-10-7-8-10-----|
G|--------------------2-----2-5-4-4-3h4----9-8-9------------------|
D|------------------------4---------------------------------------|
A|---------------------------------------------------------------|
E|---------------------------------------------------------------|

E|--7---------------------------------------|
B|---8-10p7-8p7-7-----7---------------------|
G|----9----8-----9-8-9-8-9~-----------------|
D|------------------------------------------|
A|------------------------------------------|
E|------------------------------------------|
00:00 / 00:00
Otros videos de esta canción
Repetir
Otros videos de esta canción
Composición de Andrés Cepeda
129 vistas
    • ½ Tono
    • Am
    • Bbm
    • Bm
    • Cm
    • C#m
    • Dm
    • Ebm
    • Em
    • Fm
    • F#m
    • Gm
    • G#m
  • Agregar a la lista

    0 comentarios

    Ver todos los comentarios

    ¿Lograste tocar?

    0 Tocaron 0 Aún no

    ¡Graba un video tocando Me Voy y envíanoslo!

    00:00 / 00:00
    OK