Cifra Club

Mientras mas pasaba el tiempo

Andrés Cepeda

Cifrado: Principal (guitarra y guitarra eléctrica)
Selo Cifra Club: esta cifra foi revisada para atender aos critérios oficiais da nossa Equipe de Qualidade.
tono: Em
Intro    Riff 1  Riff 2  Riff 3

Riff 1

E|---3-3-3p2------0----0-----3-3-3p2--------0-----0--------|
B|-----------3--3----3----3-----------3---3-----3----3-----|
G|------------0-----0--------0-0--------0-----0------------|
D|---------------------------------------------------------|
A|---------------------------------------------------------|
E|---------------------------------------------------------|

Riff 2
    G          Bm           Am        D
E|---3-3-3p2------0---0-----3-3-3p2------0---0------|
B|-----------3--3---3---3-----------3--3---3---3----|
G|--------------------------------------------------|
D|--------------------------------------------------|
A|--------------------------------------------------|
E|--------------------------------------------------|

Riff 3

E|---------------|
B|---------------|
G|-------0h2p0---|
D|---0h2---------|
A|---------------|
E|---------------|

G                Am    Bm           C     Riff 3
Hoy tengo muchas ganas, de conversar contigo,
Em              D            A/C#          C    /B
de recordar el barrio donde novios nos hicimos,
        Am
de la fiesta en que bailamos,
      D              Riff 3
y del beso que nos dimos.

Hoy tengo muchas ganas, de regresar el tiempo,
de estar en la ventana donde hablábamos sonriendo,
cada día de placer,
                        Riff 3
cada noche era un pretexto.

CORO
 G                  Bm7
Para sonreír, para suspirar,
   Am7              D     Riff 3
para vivir porque era nuestro,
G                      Bm7
no importaba quien no pensara igual,
      Am7                    D
  Am/F#         B7         C
y seguía la ventana, y seguíamos sonriendo,
    A
y sentíamos mas ganas,
         Am7            D Cdim Em  Em/D#  Em7  A/C#  C C/B  Am  D
mientras más, pasaba el tiempo.

Riff 3

Repetir 1ª. Estrofa

CORO
          Am7               D Cdim    Riff 2 G  Bm7  Am7
...mientras más, pasaba el tiempo,
          D               Riff 4  Em  Em7  A/C#  C C/B  Am  D
mientras más, pasaba el tiempo.


Repetir 2ª. Estrofa

CORO
             Am7           D  Cdim   Riff 5 Em  A  Am7
...mientras más pasaba el tiempo,

                             mientras más pasaba el tiempo
          D         Riff 2  G         Bm7           Am7
mientras más pasaba el tiempo.                              [5]

FINAL  Riff 1   (2)


Riff 4
    Em         Em7        A/C#        C
E|---3-3-3p2------0---0-----3-3-3p2------0---0------|
B|-----------3--3---3---3-----------3--3---3---3----|
G|--------------------------------------------------|
D|--------------------------------------------------|
A|--------------------------------------------------|
E|--------------------------------------------------|

Riff 5
    Em         A          Am7         D
E|---3-3-3p2------0---0-----3-3-3p2------0---0------|
B|-----------3--3---3---3-----------3--3---3---3----|
G|--------------------------------------------------|
D|--------------------------------------------------|
A|--------------------------------------------------|
E|--------------------------------------------------|
Otros videos de esta canción
    214 exhibiciones
      • ½ Tono
      • Am
      • Bbm
      • Bm
      • Cm
      • C#m
      • Dm
      • Ebm
      • Em
      • Fm
      • F#m
      • Gm
      • G#m
    • Agregar a la lista

    Afinação da cifra

    Afinador online

      Ops (: Contenido disponible solo en portugués.
      OK