Cifra Club

Tengo Ganas

Andrés Cepeda

Cifrado: Principal (guitarra y guitarra eléctrica)
Selo Cifra Club: esta cifra foi revisada para atender aos critérios oficiais da nossa Equipe de Qualidade.
tono: A
[Primeira Parte]

       A7M
Tengo ganas
       G#m7(5-)     C#7(9-)               F#m9  F#m7
Tengo tiempo y mil canciones que cantarte
               C9             Cm9         D7M  A/C#
Tengo historias, tengo cosas que contarte
         Bm7         Bm7/A
Más hoy tengo tu llegada
      E/G#   D/F# 
Y mi mano
 D/F#      E7(4)  E7
Voy a darte

[Segunda Parte]

        A7M
Es tan lindo
       G#m7(5-)        C#7(9-)             Em9
Cuando existe un sentimiento y cuando quieres
        C9           Cm9              D7M   A/C#
Cuando cuentas, sin callarte qué prefieres
       Bm7       Bm7/A            E/G#     D/F#
Por ejemplo yo quisiera si no es mucho
           E7
Que te quedes

[Refrão]

A7M                 C#m7
    Dame solo un momento

             Bm7
Dame amor del mas cierto

            E     
No te pido más nada

F#m9  F#m7               B7  
           Dame de tu mirada
B7(4)           Bm7
Y de tus sentimientos
                   E
Siente si estoy sintiendo

[Terceira Parte]

      A7M
No te quedes
    G#m7(5-)     C#7(9-)           F#m9  F#m7
No revises el pasado que entristece
       C9           Cm9           D7M   A/C#
No te niegues si el amor te pertenece
        Bm7          Bm7/A         E
Ven y siéntate a mi lado  mira el día
            D7M  A/C#  Bm7  E
Que amanece

[Solo]

                E               A7M  G#m7(5-)
E|------------------------------------------|
B|-----------------2--3--3--2--5--4--3--2---|
G|--------1--2--4---------------------------|
D|--2--4------------------------------------|
A|------------------------------------------|
E|------------------------------------------|

           C#7(9-)          F#m9   F#m7
E|------------------------------------------|
B|--5--4--3--2--0h2-------------------------|
G|-------------------1--1/4--2--------------|
D|------------------------------------------|
A|------------------------------------------|
E|------------------------------------------|

          C9          Cm9       D7M A/C#
E|------------------------------------------|
B|--0--2--0-----0--0h2--0--2--3--5--7--7/5--|
G|-----------2------------------------------|
D|------------------------------------------|
A|------------------------------------------|
E|------------------------------------------|

            Bm7         Bm7/A
E|-----5--4h5--2--4--4h5--4h5--4--2---------|
B|--5--------------------------------5--3---|
G|------------------------------------------|
D|------------------------------------------|
A|------------------------------------------|
E|------------------------------------------|
            E/G#       D/F#             E7
E|------------------------------------------|
B|--2--3-----2------------------------------|
G|--------4-----2--4--1--2-----1------------|
D|--------------------------4-----2--4--2---|
A|------------------------------------------|
E|------------------------------------------|

[Refrão]

A7M                 C#m7
   No respondas callada
              Bm7
Mucho menos ahora
               E  
No me digas mañana

F#m9  F#m7                 B7      
          Es que vi que pasabas
 B7(4)              Bm7
Me acerque porque pienso
                 E
Que por ti yo esperaba

[Final]

       A7M
Tengo ganas
       G#m7(5-)     C#7(9-)              F#m9  F#m7
Tengo tiempo y mil canciones que cantarte
          C9            Cm9          D7M  A/C#
Tengo historias, tengo cosas que contarte
         Bm7         Bm7/A
Más hoy tengo tu llegada
      E           D7M  A/C#  Bm7  E
Y mi mano, voy a darte
           A7M
Voy a darte
Otros videos de esta canción
    22.482 exhibiciones
      • ½ Tono
      • A
      • Bb
      • B
      • C
      • Db
      • D
      • Eb
      • E
      • F
      • F#
      • G
      • Ab
    • Agregar a la lista

    Afinação da cifra

    Afinador online

      Ops (: Contenido disponible solo en portugués.
      OK