Cifra Club

Cry For You

Andy Timmons

Cifrado: Principal (guitarra y guitarra eléctrica)
tono: E
                               -/1               ^                           
     W                   Q     H.                Q    S  E.  Q     E   S  S  
E||-------------------|--------8~------------|--15-----------------x--17-17-|
B||-------------------|-------10-------------|--17----6S-8---6~----x--18-18-|
G||-------------------|-------12-------------|--19----5S-7---5--------------|
D||-------------------|--------0-------------|------------------------------|
A||-------------------|----------------------|------------------------------|
E||-------------------|----------------------|------------------------------|


             >                                                                 
   Q     S S S S S S E   Q       S S  S S  S  S S S   S S  S   S  S  S   S  S  
--17\-------------------------|-----------------------------------------------|
--18\--------6-5-L------------|-----------------------------------------------|
--19-------5-------5----------|-----------------5-------7--------10--------12-|
---------------------5~--L----|----2S-3-5h-7S-8---8S-10---10S-12----12S-15----|
------------------------------|-----------------------------------------------|
------------------------------|-----------------------------------------------|

   S   S  S  S  E   S  S   E   S  S   Q     
-------------------------------------------|
-------------------------------------------|
---------14----15--17-14~--L---------------|
--15S-17----17----------------15-----------|
---------------------------------17~--L----|
-------------------------------------------|

   |---3---|    |---3---|   |----3---|   |---3---|                            
   E   E   E    E   E   E   E    E   E   E   E   E       H.           S S E   
--15--13---------------------------------------------|-----------------------|
----------15p--13------------------------------------|----------------x-x-6--|
-------------------14--12----------------------------|----------------x-x-5--|
---------------------------15p--12-------------------|-----------------------|
------------------------------------15--12-----------|-----------------------|
--------------------------------------------15--13s--|--10-------------------|

  S  E.  H        Q       S S S S S S S S H         
-----------------------|--------1-L-L---0-L--------|
--6s-8---L-------------|------3-L---3-L------------|
--5s-7---L-------------|----5-L-L-----5------------|
-----------------------|--0-L-L-L------------------|
-----------------------|---------------------------|
-----------------------|---------------------------|

  H        S S S  S S  S S  S  
------------------------------|
------------------------------|
---------------9b-L-9b-L-9b-L-|
-------------7----------------|
------------------------------|
------------------------------|

  S  S S  S  S   S  S   S  S   S  S   S S   S S S   
---------------------------------------------------|
---------------------------------------------------|
--9b-L-9b-L-(9)b-L-(9)b-L-(9)b-L-(9)b-L-9-9g7-5-7~-|
---------------------------------------------------|
---------------------------------------------------|
---------------------------------------------------|

  S E.   Q    E.  T   T  S   T   T  S   S     E    E    H        S  S  S  S  
------------------------------------------|---------------------------------|
------------------------10h-11p-10--------|---------------------------15----|
--L-5\-----------------------------12p-10-|--12b--12b---L--------x-14----14-|
--------------------/12-------------------|---------------------------------|
------------------------------------------|---------------------------------|
------------------------------------------|---------------------------------|

  S  S  S  S S  S  S  S S  S  E    E   E      H.            E    S  S   
-------12---------13---------15b--18--17--|---L------------------------|
------------------------------------------|----------------15b---L-15~-|
--x-14----14---14----14-x-14--------------|----------------------------|
------------------------------------------|----------------------------|
------------------------------------------|----------------------------|
------------------------------------------|----------------------------|

   Q    Q    H             E.  S H.             
----------------------|------------------------|
---L------------------|------------------------|
----------------------|--7g9---9-9~------------|
----------------------|------------------------|
----------------------|------------------------|
----------------------|------------------------|

  Q    E.    S S  S S S S   S  S  S  
------------------------------------|
------------------------------------|
--L------------7S-9-9---9S-10-10-10-|
-----------5g7--------7-------------|
------------------------------------|
------------------------------------|

  E.   T  T  T T  X   X   E.   Q    T  E    S    Q    S  S S S E.   S E  E   
----------------------------------------------|-----------------------------|
----------------------------------------------|-----------------------------|
--9b---9p-7----7----------------------12b---L-|-------2S-3-2----------------|
------------10---10S-12~--L----L----L---------|--------------3-5S---7-L-----|
----------------------------------------------|-----------------------------|
----------------------------------------------|-----------------------------|

    E.  S S S S  S Q.     E     Q    E.    S S  S S S S   S  S  S  
-----------------------------|------------------------------------|
-----------------------------|------------------------------------|
--7g9---9-9-9-9~-L-L------L--|--L------------7S-9-9---9S-10-10-10-|
-----------------------------|-----------5g7--------7-------------|
-----------------------------|------------------------------------|
-----------------------------|------------------------------------|

  E.   T  T  T T  X   X   E.   Q    T  E    S    Q    S  S S S  E.  S E  E   
----------------------------------------------|-----------------------------|
----------------------------------------------|-----------------------------|
--9b---9p-7----7----------------------12b---L-|-------2S-3-2----------------|
------------10---10S-12~--L----L----L---------|--------------3S-5---7-L-----|
----------------------------------------------|-----------------------------|
----------------------------------------------|-----------------------------|


     PM                             PM                              
  S  S  E.   S S Q     S S E.       E   E.   S S Q     S S  S E     
--------------------------------|----------------------------------|
--------8b---6---8~------6------|-------8b---6---8~------6h-8-8b~--|
----(7)--------------------7\---|--(7)-----------------------------|
--------------------------------|----------------------------------|
--------------------------------|----------------------------------|
--------------------------------|----------------------------------|


     PM                                                                   
  S  S  E.   S S Q     S S  S S S    E   S   S   S  E.   Q    S S    S S  
----------------------------------|--------------------------------------|
--------8b---6---8~------6h-8-----|--8b--8pb-8pb-8b-8b---L------8pbr-L-6-|
----(7)-----------------------x-x-|--------------------------------------|
----------------------------------|--------------------------------------|
----------------------------------|--------------------------------------|
----------------------------------|--------------------------------------|

   E.    S    S    S    S     Q.      E.   
------------------------------------------|
--15b---15pb-15pb-15pb-15pb~--L-------L---|
------------------------------------------|
------------------------------------------|
------------------------------------------|
------------------------------------------|

   Q    E.      S  S   S  S  S  S   S  S  S  
--------------------------------------------|
---L--------------15S-17-17----17S-18-18-18-|
------------12g14-----------14--------------|
--------------------------------------------|
--------------------------------------------|
--------------------------------------------|

   E.    T   T  T  T  T    T  E.   E   T  E    S S.  
----------------------------------------------------|
--17b---17p-15----15---------------------18b---L----|
---------------17----17b~--L--L----L---L------------|
----------------------------------------------------|
----------------------------------------------------|
----------------------------------------------------|

            |---3--|                                                          
   Q     S  S   S  S  S Q    Q        E.    S    S    S    S     Q.      E.   
----------------------------------|------------------------------------------|
--10b----L------------------------|--15b---15pb-15pb-15pb-15pb~--L-------L---|
-----------12p-10p-9~-L-L---------|------------------------------------------|
----------------------------------|------------------------------------------|
----------------------------------|------------------------------------------|
----------------------------------|------------------------------------------|

  Q    E.      S  S   S  S  S  S   S  S  S  
-------------------------------------------|
-----------------15S-17-17----17S-18-18-18-|
-----------12g14-----------14--------------|
-------------------------------------------|
-------------------------------------------|
-------------------------------------------|

         |---3--|                         
   E.    S   S  S   E   Q     E   E    S  
-----------------------------------------|
--18b---18p-17-15~--L---L-----L--13b---L-|
-----------------------------------------|
-----------------------------------------|
-----------------------------------------|
-----------------------------------------|

   |---3--|                                                                 
   S   S  S  T  T   T  T   E    T  T   T  T  T  T   T  T  T  T    S  E  E   
---------------------------------------------------------------------------|
--13p-10-------------------------------------------------------------------|
---------12--L-12b-12-10h-12~--10------------------------------------------|
----------------------------------12p-10-----------------------------------|
-----------------------------------------12-10-10b-10p-8----10-8g10--L--8--|
---------------------------------------------------------10----------------|

  E   E.    S   S  Q     S  S  E.      E   E    S   S  S  Q    S  S  S    E    
------------------------------------|-----------------------------------------|
------------------------------------|-----------------------------------------|
-----12b---12p-10-12~------10-------|-----12b--12b-12-10-12------10-12-<>12b--|
------------------------------12\---|-----------------------------------------|
------------------------------------|-----------------------------------------|
------------------------------------|-----------------------------------------|

  E   E    S  S  S  Q    S  S    S  E     E   S   S   S  E.   Q     Q      
---------------------------------------|----------------------------------|
---------------------------------------|--8b--8pb-8pb-8b-8b---L-----------|
-----12b---L-12-10-12------10-<>12b----|----------------------------------|
---------------------------------------|---------------------------15\----|
---------------------------------------|---------------------------13\----|
---------------------------------------|----------------------------------|

                       |---3---|                                         
  E  E  S  E.    Q     E   E   E      Q.        S  E.    S  E    S  E    
----------------------17--18--17--|------------17-------17------17------|
----------20b----L----------------|--18b~---------18b------17b-----15b--|
----------------------------------|-------------------------------------|
--3--3----------------------------|-------------------------------------|
--1--1----------------------------|-------------------------------------|
----------------------------------|-------------------------------------|

               |---3--|  |---3--|   |--3--|  |---3--|   |--3--|  
   Q      E    S  S   S  S   S  S   S  S  S  S   S  S   S  S  S  
----------------------------------------------------------------|
--15~---------10-13p-10-11p-10-----------10---------------------|
---------12b-------------------12p-10-------12p-10--------10p-9-|
--------------------------------------12-----------12p-10-------|
----------------------------------------------------------------|
----------------------------------------------------------------|

   |---3--|  |---3---|                                     
   S   S  S  S   S   S S S S  S  S  S  S  S   S  S  S  S   
----------------------------------------------------------|
----------------------------------------------------------|
----------------------------------------------------------|
--12p-10--------------------------------------------------|
---------12-10S-12S-10-8-8-8-/8-10-10-10-10S-12-12-12-12S-|
----------------------------------------------------------|

          |--12-|  |--12-|  |--12-|  |--12-|  |--12-|  |--12-|  |--12-|  |--12-|
   Q      T  T  T  T  T  T  T  T  T  T  T  T  T  T  T  T  T  T  T  T  T  T  T  T
--------------------------------------------------------------------------------
------------------------------------------------------------------------13-15-17
------------------------------------------------------12-14-15-12-14-15---------
------------------------------------12-14-15-12-14-15---------------------------
--15\-------------12-13-15-12-13-15---------------------------------------------
---------12-13-15---------------------------------------------------------------

                             |-------5------|  
   Q.       S  E.   S  E.    T   T   T   T  T  
--17b------17-17---15-15~---17h-18p-17p-15----|
-------------------------------------------18-|
----------------------------------------------|
----------------------------------------------|
----------------------------------------------|
----------------------------------------------|

                       |----3---|   |---3---|    
   S     S   E   Q     E    E   E   E   E   E    
--17-15g17~--L---L----17b--17--------------20b--|
-------------------------------20--18--17-------|
------------------------------------------------|
------------------------------------------------|
------------------------------------------------|
------------------------------------------------|

                   |----3---|                            
   Q.      Q.      E   E    E        W                   
---L------20b---------20b--20pb--|--20b~----------------|
---------------------------------|----------------------|
---------------------------------|----------------------|
---------------------------------|----------------------|
---------------------------------|----------------------|
---------------------------------|----------------------|

           |----3----|   |---3---|                                |----3---|   
  H        E  E      E   E   E   E         E.   S  H              E    E   E   
------------------------------------|-----------------------------------------|
------------------------------------|-----------------------------------------|
------------------------10--12--14--|--10g12---10-----------------------------|
-----------------10g12--------------|-------------12~-----------------10--10--|
------------------------------------|------------------------10g(12)----------|
------------------------------------|-----------------------------------------|

   |----3---|         |----3---|  |---3--|                               
   E    E   E    Q    E  E     E  E   E  E        E.   S  H.             
--------------------------------------------|---------------------------|
--------------------------------------------|---------------------------|
--------------------------------------------|---------------------------|
--10h--12--------------------------------7--|---------------------------|
-----------12~---L----------------8--10-----|--8g10S---8p-7~------------|
----------------------------8g10------------|---------------------------|

       |--3--|  |---3---|   |-----3-----|                            |---3--|   
  Q    E  E  E  E    E  E   E    E      E      Q.        S  Q      S E  E   E   
-------------------------------------------|-----------------------------------|
-------------------------------------------|-------------------------------11--|
-------------------------------------------|-----------/10---------------------|
-------------------------------------------|---------------12~-----L-L--L------|
------------------------8--10h--12--12g15--|--12~------------------------------|
-------------8--8h--10---------------------|-----------------------------------|

   |---3---|   |----3----|   |-3-|    |--|                        
   E   E   E   E     E   E   E   S    S  E   S   T  T   T   T  S  
------13--10------------10---------------------------------------|
--10----------13br---L------13-----------------------------------|
--------------------------------12br--L-----10h-12-12b-12p-10----|
----------------------------------------12--------------------12-|
-----------------------------------------------------------------|
-----------------------------------------------------------------|

                                                     |--6--|  |--6--|  
      S  S   S  S  S  S  S  S   S   T  T  T  T  T  T S  S  S  S S   S  
----------------------------------------------------------------------|
--10g11-11p-10--------------------------------------------------------|
---------------12--L----10--------------------------------------------|
---------------------12----10b-10b-10p-8----10p-8----8p-7-------------|
-----------------------------------------10-------10------10p-8-------|
----------------------------------------------------------------8br-L-|

             |--3--|                          
  Q.      E  S   S S S  S S   S  T  T   T  T  
---------------------------------------------|
---------------------------------------------|
---------------------------------------------|
-------------------8-8----8h-10-10-10b-10p-8-|
-------------8h-10-----10--------------------|
--6~-----------------------------------------|

   E    E    E.       S  E.   S Q     
-------------------------------------|
-------------------------------------|
-------------------------------------|
--10b--10b--10b---12g14-10---12------|
-------------------------------------|
-------------------------------------|

  |-3|  |---3--|   |--6--|  |---6--|   |--6--|  |--6--|  |--3--|       
  E  S  S   S  S   S  S  S  S   S  S   S  S  S  S  S  S  S  S  S  E    
-----------------------------------------------------12----13----13b--|
----------------------------------11p-10-14-10-15-10----10----10------|
---------------------10----12p-10-------------------------------------|
--------------10S-11----11--------------------------------------------|
-------12S-13---------------------------------------------------------|
----------------------------------------------------------------------|

   H.              Q      
--13b~------------13b----|
-------------------------|
-------------------------|
-------------------------|
-------------------------|
-------------------------|

   |---3--|                                               |--3--|  
   S   S  S  E  E   X  X  X  X   T  E.   T   T   T  E     S  S  S  
--13p-12-13~-L-----------14-17~--L--L---15p-13p-12-13b~---L-13-12-|
----------------------15------------------------------------------|
-------------------14---------------------------------------------|
------------------------------------------------------------------|
------------------------------------------------------------------|
------------------------------------------------------------------|

   |---3--|  |--3--|  |---3--|  |---3--|  |---3--|   |--3--|  |---3--|          
   S  S   S  S  S  S  S   S  S  S   S  S  S   S  S   S  S  S  S  S   S  T  T  T 
-----13p-12---------------------------------------------------------------------
--15--------13----15--------13--------13-11p-10---------------------------------
---------------12----12h-14----12h-14-----------12p-10----10p-9-----------------
-------------------------------------------------------12-------12p-10----10----
-----------------------------------------------------------------------12----10b
--------------------------------------------------------------------------------

   T T  T  T    E    H        S S   S S      S S E   Q    E  S S   S S E    
----------------------------------------|----------------------------------|
----------------------------------------|----------------------------------|
----------------------------------------|----------------------------------|
----------------------------------<>3-5-|--5g7-3-5~--L----L------5g7-3-5~--|
---L-8----10-8g10~---L--------3-5-------|--------------------3-5-----------|
-------10-------------------------------|----------------------------------|

  |--6-| |--6-| |--6-| |--6--|            
  S  S S S  S S S S  S S   S S  H         
-----------------------------------------|
-----------------------------------------|
--------------5---7----7h-10-7~-L--------|
-------3-5S-7---7---10-------------------|
--3h-5-----------------------------------|
-----------------------------------------|

   E    S S E   S S E   S  S   E   S   S   
------------------------------------------|
--10b--10-8-L--10-8-L--10-----------------|
--------------------------10h-12--12p-10~-|
------------------------------------------|
------------------------------------------|
------------------------------------------|

                |--3--|     |--3--|                       |---3---|  
   E  S  S   E  S   S S     S  S  S  T    T  T  T  S   S  S   S   S  
--------------------------------------------------------------------|
------8--------------------------------------------------10h-13p-10-|
---L----10b--L--------7-------10----12br--L--L-10-12b--L------------|
----------------7h-10---10g12----12---------------------------------|
--------------------------------------------------------------------|
--------------------------------------------------------------------|

   E    S  S   Q     E.   S    Q     
-------13----------------13b~--L----|
--13b-----13b--L-----L--------------|
------------------------------------|
------------------------------------|
------------------------------------|
------------------------------------|

          |--3--|  |---3--|  |----3---|  |---3--|               
   S   S  S  S  S  S  S   S  S     S  S  S  S   S  E   E.   S   
------13----10-------------------------------------------------|
--13b----13----10-13-----10--------------------------------10b-|
---------------------12b----12pbr-10-12-10-12~--L--L---L-------|
---------------------------------------------------------------|
---------------------------------------------------------------|
---------------------------------------------------------------|

                                             |--3--|  |--3-|  |--3-| |--3--|  
   E   T  T   T  T  T   T  T  T  T  T  T  T  S  S  S  S S  S  S S  S S  S  S  
-----------------------------------------------------------------------------|
---L--11-11p-10----11p-10-------10-------------------------------------10----|
----------------12--------12-10----12-10----12----10----9----10-9-12-9----12-|
-----------------------------------------12----12----12---12-----------------|
-----------------------------------------------------------------------------|
-----------------------------------------------------------------------------|

   |--3--|                                                           
   S  S  S  S  E.    S   Q.     E.      H           E   E   E   E    
------------------------------------|--------------17--18--20--18b--|
--11-10----10-11b---11p-10----------|--20b~-------------------------|
--------12--------------------------|-------------------------------|
------------------------------------|-------------------------------|
------------------------------------|-------------------------------|
------------------------------------|-------------------------------|

         |---3---|   |---3--|   |---3--|   
   Q     E   E   E   E   E  E   E   E  E   
---L-----L--18--17------------------------|
--------------------20--18-----15--17-----|
------------------------------------------|
------------------------------------------|
------------------------------------------|
------------------------------------------|

   E    T  T  T  T   Q     Q      E   S  S  
-------------------------------------10-13-|
--17b--11-10p-8-10~--L----13b-----L--------|
-------------------------------------------|
-------------------------------------------|
-------------------------------------------|
-------------------------------------------|

   T    T  T  T  S  S   E   T  T   S  Q     S  S  S  S  
-------------------------------------------------17-20-|
-------------------------------------------18-20-------|
--12br--L--L-10-12-12b-12--10--------------------------|
------------------------------12~--L--L----------------|
-------------------------------------------------------|
-------------------------------------------------------|

                          |---3---|   
   Q       E    S  S Q    E   E   E   
--20b~----22b--22b-------------------|
-------------------------------------|
---------------------2----9--10--12--|
-------------------------------------|
-------------------------------------|
-------------------------------------|

   E    T  T  T  T   T  T  T  T   T  T  T  T T  T T  T  T T   T T  Q      
-------------------------------------------------------------------------|
-------------------------------------------------------------------------|
--10b--10p-9-----------10p-9---------------------------------------------|
-------------12-10h-12-------12p-10--------------------------------------|
------------------------------------12-10p-8-7----8p-7----------8--------|
-----------------------------------------------10------10-8h-10---10~----|

  |--3-|  |--3-|   |---3--|  |--------|                 
  S  S S  S  S S   S   S  S  S  S     S  Q      E.  S   
-------------------------------------------------------|
-------------------------------------------------------|
----------------------------------------------------7b-|
-------------------------------10-12g15-12~-----L------|
-------8-10----8-(10)-12-10-12-------------------------|
--8-10------10-----------------------------------------|


                     W          
  E  S S  Q    E     E    Q     
-------------------------------|
-------------------------------|
--L--7-6~-L----L--<>12~---L----|
-------------------------------|
-------------------------------|
-------------------------------|

                                           SH    
  |-3-| |-3-|               |--3--|              
  S S S S S S S E.   S  S   S  S  S   S    E.    
------------------------------------------------|
---------------------------10-11--------<>14b---|
----6---7---9---9b---9-12b-------12b--L---------|
--7---7---7---7---------------------------------|
------------------------------------------------|
------------------------------------------------|

     Q     E   T  T  T  T  T  T  T  T    E   E  E   
---------------------------------------------------|
--<>14----14-----15----17----18----18b~--L---L-----|
--------------14----14----14----14-----------------|
---------------------------------------------------|
---------------------------------------------------|
---------------------------------------------------|

                |--6--|  |--6--|  |--6--|  |--6--|  
   Q      Q     S  S  S  S  S  S  S  S  S  S  S  S  
---------------------------------------------------|
--20b~----x-------------------------------11-13-15-|
----------x----------------------10-12-14----------|
----------x-------------10-12-14-------------------|
---------------10-12-13----------------------------|
---------------------------------------------------|

   E.    S    S    S    S    S  Q    S S S S  
---------------------------------------------|
--15b---15pb-15pb-15pb-15pb--L--L------------|
---------------------------------------------|
---------------------------------------------|
---------------------------------------3-5-3-|
---------------------------------------------|

  Q    E.   S  S   S  S  S  S   S  S  S  
----------------------------------------|
--------------15S-17-17----17S-18-18-18-|
--7----L---14-----------14--------------|
--7----L--------------------------------|
--5----L--------------------------------|
----------------------------------------|

   E.    T   T  T  T  T    T  E.   E   T  S   S  T E   
------------------------------------------------------|
--17b---17p-15----15---------------------20b-18--L----|
---------------17----17b~--L--L----L---L--------------|
------------------------------------------------------|
------------------------------------------------------|
------------------------------------------------------|

           |--3--|                                                             
   Q     S S  S  S  S Q    Q        E.    S    S    S    S    S  Q    S S S S  
--------------------------------|---------------------------------------------|
--10b----L-8--------------------|--15b---15pb-15pb-15pb-15pb--L--L------------|
-------------10p-9~-L-L---------|---------------------------------------------|
--------------------------------|---------------------------------------------|
--------------------------------|---------------------------------------3-5-3-|
--------------------------------|---------------------------------------------|

  Q    E.   S  S   S  S  S  S   S  S  S  
----------------------------------------|
--------------15S-17-17----17S-18-18-18-|
--7----L---14-----------14--------------|
--7----L--------------------------------|
--5----L--------------------------------|
----------------------------------------|

         |---3--|             |--3--|  |--3--|   |--3--|   
   E.    S   S  S   E   E.    S  S  S  S  S  S   S  S  S   
-----------------------------------10---------------------|
--18b---18p-17-15~--L--------10-13----10-13-----10-10-----|
-----------------------12b------------------12b-------12h-|
----------------------------------------------------------|
----------------------------------------------------------|
----------------------------------------------------------|

                                                                 SH            
   |---3--|                                                                    
   S  S   S  T    T  T  T  T   T  T  T  T   T  T  T    T  T T    S.  S E.   S  
------------------------------------------------------------------------------|
------------------------------------------------------------------------------|
--10-12p-10-12br--L--L-10-12p-10------------------------------<>10b-10-7~-----|
------------------------------------10-12p-10---------------------------------|
---------------------------------12-----------12-10br--L--L-8-----------------|
------------------------------------------------------------------------------|

  E   E.    S  S  Q      S  S  E.      E   E.     S  S  S  Q      S  S  E    
------------------------------------|---------------------------------------|
-----20b---20-18-20~-----L-18-------|-----20b~----L-20-18-20~----18-20-20b--|
------------------------------19~---|---------------------------------------|
------------------------------------|---------------------------------------|
------------------------------------|---------------------------------------|
------------------------------------|---------------------------------------|

   S S  E.    S  S  Q      S  S  E.   
-------------------------------------|
---L---20b---20-18-20~----18-20--L---|
-------------------------------------|
-------------------------------------|
-------------------------------------|
-------------------------------------|

  S.  S   T  T  T   E   S   T  T  T   T  T   T  T  T   T  T  T   T  T   T  T   T
---------17-18-------------17-18-----17-18p-17-17--------17-20p-17-21p-17-21p-17
-----20b-------20b--L--20b-------20b--------------18h-20------------------------
--------------------------------------------------------------------------------
--------------------------------------------------------------------------------
--------------------------------------------------------------------------------
--------------------------------------------------------------------------------

   E.     S  S S  E    E  S S S S   S S  
--20b~---20-17---20b---L----------------|
----------------------------------------|
----------------------------------------|
------------------------------3-5-5g7-3-|
--------------------------3-5-----------|
----------------------------------------|

                       PH                                    
  |---3---|                 |-------10-----|  |-----10----|  
  S S E   E  Q.        E    T   T   T   T  T  T  T  T  T  T  
--------------------<>13b--15h-17p-15p-13----15----13----10-|
------------------------------------------15----15----13----|
------------------------------------------------------------|
--5-3-------------------------------------------------------|
------5~--L--L----------------------------------------------|
------------------------------------------------------------|


   9  9   9  9  9   9  9   9   9  9          |--3--|   |---3--|         
   T  X   X  T  T   T  T   T   T  T  Q       S  S  S   S  S   S   Q     
--10--------10------------------------------10-13-----10---------------|
-----13p-10-------------------------13b~----------13b----13b-10~--L----|
---------------14p-12-14p-12p-10---------------------------------------|
---------------------------------12------------------------------------|
-----------------------------------------------------------------------|
-----------------------------------------------------------------------|

   E   E    T  T   T  T  T   T  T   T  T  T  T  T  T   T  T  T   T  T   T  T  T 
--------------------------------------------------------------------------------
---L-------10-11p-10-----------11p-10----10p-9----13p-10----11p-10--------------
------12b------------12-10h-12--------12-------12--------12--------12p-10----12-
--------------------------------------------------------------------------12----
--------------------------------------------------------------------------------
--------------------------------------------------------------------------------

          |---3--|  |---3--|           |---3--| |--3--|       
     E    S   S  S  S   S  S  E    E   S    S S S   S S  E    
-------------------------------------------------------------|
-------------------------------------------------------------|
--<>10~-------------------10---------------------------------|
---------12p-10----10h-12----12~---L-------------------------|
----------------12--------------------10br--L-8-------8------|
------------------------------------------------8h-10---10~--|

   E   Q        S  S  S   S  S   S  S   S  S   S  
-------------------------10-----12-----13-----15-|
------------------10-13b----15b----16b----18b----|
------12pbr-----L--------------------------------|
-------------------------------------------------|
-------------------------------------------------|
---L---------------------------------------------|

       |--3--|                                              
   S   S  S  S  S  Q.        E    T  T  T  T  T   T  T   T  
------------------20b~------22b--20----17----18p-17--------|
--22b-22-20-22-20-------------------20----20--------20p-18-|
-----------------------------------------------------------|
-----------------------------------------------------------|
-----------------------------------------------------------|
-----------------------------------------------------------|

   T   T  T  T   T  T  T   T  T   T  T  T   T  T    T  T  T  T   T  T    E.   S 
--15p-13----13p-12----13p-12----------------------------------------------------
---------15--------15--------15p-13----13h-15----------------------13b~--L---13-
------------------------------------14--------12br--L--L-10---------------------
------------------------------------------------------------12p-10--------------
--------------------------------------------------------------------------------
--------------------------------------------------------------------------------


          PM                                          
   E   S  S  E    S  S  S  S  E   S  S  T    T  T  T  
-----------------------------------------------------|
---L-------------------------------------------------|
------12----10~--12-12b----------10-12-12br--L--L-10-|
---------12---------------12--L----------------------|
-----------------------------------------------------|
-----------------------------------------------------|

                                   |---3--|                       
   E    S  S  E      E      E      S   S  S  T  T  T  T  T  T  S  
-----------------------------------------------------------------|
-------------10pbr--10pbr--10pbr---------------------------------|
--12~--10-12----------------------12p-10----10p-9----------------|
-----------------------------------------12-------12----10-------|
-----------------------------------------------------12----10p-8-|
-----------------------------------------------------------------|

  E    S  S Q.      S S S E   S    E  S  S S   E.   E    S  S S  E  S  
--------------------------------|-------------------------------------|
--------------------------------|-------------------------------------|
--------------------x-x-x-9b--L-|--L--7----7-5g7~---L--<>7-10-7-----5-|
--------------------x-x-x-------|-------10----------------------10----|
--8~--10----8~------x-x-x-------|-----------------------------------3-|
---------10---------------------|-------------------------------------|

  S  S S S S  S S S  S  S  S  S  Q     
--------------------------------------|
--------------------------------------|
--5S-7-7-7-7S-9-9-9-10-10-14-14--L----|
--------------------------------------|
--3S-5-5-5-5S-7-7-7--8--8-12-12--L----|
--------------------------------------|

    E  S S S S S S  S  S  S  S  S  S  S  S  
-------------------------------------------|
-------------------------------------------|
--5g7--7-7-7-9-9-9-10-10-10-12-12-12-12-12-|
-------------------------------------------|
--3g5--5-5-5-7-7-7--8--8--8-10-10-10-10-10-|
-------------------------------------------|

   |---3---|                                  |-------5------|  
   E   E   E   E.   S   E   T   T   T  T  E   T   T  T   T   T  
----------------------------------------------------13h-15h-17-|
-------------------17b--L--18p-13h-15--L--L--13h-15------------|
--12--14--17--14-----------------------------------------------|
---------------------------------------------------------------|
--10--12--15--12-----------------------------------------------|
---------------------------------------------------------------|

   T              T                 T           T           T           T       
   |--12-|  |--12-|  |--12-|  |--12-|  |--12-|  |--12-|  |--12-|  |--12-|  |--12
   T  T  T  T  T  T  T  T  T  T  T  T  T  T  T  T  T  T  T  T  T  T  T  T  T  T 
--18-17-15-13-17-18-17-15-13-15-17-18-17-15-13-18-17-15-13-20-17-15-13-20-17-15-
--------------------------------------------------------------------------------
--------------------------------------------------------------------------------
--------------------------------------------------------------------------------
--------------------------------------------------------------------------------
--------------------------------------------------------------------------------

            T           T           T           T                 T             
   |--12-|  |--12-|  |--12-|  |--12-|  |--12-|  |--12-|  |--12-|  |--12-|  |--12
   T  T  T  T  T  T  T  T  T  T  T  T  T  T  T  T  T  T  T  T  T  T  T  T  T  T 
--17-15-13-22-17-15-13-20-17-15-13-22-17-15-13----------------------------------
-----------------------------------------------22-17-15-13-15-17-20-17-15-13-17-
--------------------------------------------------------------------------------
--------------------------------------------------------------------------------
--------------------------------------------------------------------------------
--------------------------------------------------------------------------------

   T           T           T           T           T           T           T    
   |--12-|  |--12-|  |--12-|  |--12-|  |--12-|  |--12-|  |--12-|  |--12-|  |--12
   T  T  T  T  T  T  T  T  T  T  T  T  T  T  T  T  T  T  T  T  T  T  T  T  T  T 
--24-17-15-13-22-17-15-13-------------------------------------------------20-17-
--------------------------22-17-15-13-20-17-15-13-18-17-15-13-20-17-15-13-------
--------------------------------------------------------------------------------
--------------------------------------------------------------------------------
--------------------------------------------------------------------------------
--------------------------------------------------------------------------------

       |--3--|                                                                  
   E   S  S  S  T   T   T  T  T   T  T   T  T  T   T   T  T  T   T   T  S  T  T 
---------------20p-19p-18----22p-17--------17-16p-15p-13----12h-13p-12-------12-
---L--22-20--L------------20--------20p-18---------------15------------15-10----
--------------------------------------------------------------------------------
--------------------------------------------------------------------------------
--------------------------------------------------------------------------------
--------------------------------------------------------------------------------

   T   T  T  T  T  T  S  T  T  S   S  T  T  Q.       S  S  
----------------------------------10-13-10-13b~-----------|
------------------------10-13-13b-------------------------|
--12p-10----12----10---------------------------------5S-7-|
---------12----12----12-----------------------------------|
-----------------------------------------------------3S-5-|
----------------------------------------------------------|

  S  T T S S T T S S T T S S S S S T T S S  
-------------------------------------------|
-------------------------------------------|
--7--x-x-7-7-x-x-7-7-x-x-7-7-x-7-7-x-x-7-7-|
-----x-x-----x-x-----x-x-----x-----x-x-----|
--5--x-x-5-5-x-x-5-5-x-x-5-5-x-5-5-x-x-5-5-|
-----x-x-----x-x-----x-x-----x-----x-x-----|

  S S S S T T S S S  S   S  S  S  S  S  S   S  
----------------------------------------------|
----------------------------------------------|
--7-x-7-7-x-x-7-7-x-12b-10-12----10-----------|
----x-----x-x-----x-----------12----12-10h-12-|
--5-x-5-5-x-x-5-5-x---------------------------|
----x-----x-x-----x---------------------------|

  S T T S S  S S S T  T S S S S S S S S  
----------------------------------------|
----------------------------------------|
--7-x-x-7-7--x-7-7-x--x-7-7-x-7-7-x-7---|
----x-x------x-----x--x-----x-----x-----|
--5-x-x-5-5--x-5-5-x--x-5-5-x-5-5-x-5---|
----x-x------x-----x--x-----x-----x-----|

   S   S  E    S  S  S   S  S  S  E    E   S S  
-----------------------------------------------|
-----------------------------------------------|
--12b-10-12~--10-12-12b-10-12-10-12b-----------|
--------------------------------------12~--x-x-|
-----------------------------------------------|
-----------------------------------------------|

  S T T S S  S S S T  T S S S S S S  E    
------------------------------------13b--|
-----------------------------------------|
--7-x-x-7-7--x-7-7-x--x-7-7-x-7-7-x------|
----x-x------x-----x--x-----x-----x------|
--5-x-x-5-5--x-5-5-x--x-5-5-x-5-5-x------|
----x-x------x-----x--x-----x-----x------|

              |---3--|   |---6--|  |---6--|             
  S S S S E   S   S  S   S  S   S  S   S  S   E   S  S  
-----------------10-----12-----13-----15-----17--20-17-|
-------------13b----15b----16b----18b----20b-----------|
--7-x-7-7----------------------------------------------|
----x--------------------------------------------------|
--5-x-5-5----------------------------------------------|
----x--------------------------------------------------|

                                                     |---12--|   |---12--|   |--
   E.     S   S  T   T  T   T  S   S  T  T  T  T  S  T   T   T   T   T   T   T  
--20b~---20pb-L-20p-17-20p-17-20~--L-17-20-17-20--L-17h-20h-24p-17h-20h-24p-17h-
--------------------------------------------------------------------------------
--------------------------------------------------------------------------------
--------------------------------------------------------------------------------
--------------------------------------------------------------------------------
--------------------------------------------------------------------------------

   |---12--|  |---12--|  |---12--|  |---12--|  |---12--|  |---12--|  |---12--|  
   T   T   T  T   T   T  T   T   T  T   T   T  T   T   T  T   T   T  T   T   T  
--17h-20h-24-17h-20h-24-17h-20h-24-17h-20h-24-17h-20h-24-17h-20h-24-17h-20h-24-1
--------------------------------------------------------------------------------
--------------------------------------------------------------------------------
--------------------------------------------------------------------------------
--------------------------------------------------------------------------------
--------------------------------------------------------------------------------

   |---12--|  |---12--|  |---12--|  |---12--|  |---12--|  |---12--|  |---12--|  
   T   T   T  T   T   T  T   T   T  T   T   T  T   T   T  T   T   T  T   T   T  
--17h-20h-24-17h-20h-24-17h-20h-24-17h-20h-24-17h-20h-24-17h-20h-24-17h-20h-24-1
--------------------------------------------------------------------------------
--------------------------------------------------------------------------------
--------------------------------------------------------------------------------
--------------------------------------------------------------------------------
--------------------------------------------------------------------------------

Duration Legend
---------------
W - whole
H - half
Q - quarter
E - 8th
S - 16th
T - 32nd
X - 64th
. - note dotted
|-n-|  - n-tuplets

Tablature Legend
----------------
L - tied note
x - dead note
g - grace note
(n) - ghost note
> - accentuded note
NH - natural harmonic
AH - artificial harmonic
TH - tapped harmonic
SH - semi harmonic
PH - pitch harmonic
h - hammer on
p - pull off
b - bend
br - bendRelease
pb - preBend
pbr - preBendRelease
brb - bendReleaseBend
\n/ - tremolo bar dip
\n - tremolo bar dive
-/n - tremolo bar Release up
/n\ - tremolo bar inverted dip
/n - tremolo bar return
-\n - tremolo bar Release down
S - shift slide
s - legato slide
/ -  slide into from below or out of upwards
\ -  slide into from above or out of downwards
~ - vibrato
W - wide vibrato
tr - trill
TP - tremolo picking
T - tapping
S - slap
P - pop
< - fade in
^ - brush up
v - brush down
00:00 / 00:00
Otros videos de esta canción
Repetir
Otros videos de esta canción
Compositor no encontrado.
Colaboración y revisión:
  • Nickson Ramon
323 vistas
    • ½ Tono
    • A
    • Bb
    • B
    • C
    • Db
    • D
    • Eb
    • E
    • F
    • F#
    • G
    • Ab
  • Agregar a la lista

    0 comentarios

    Ver todos los comentarios

    ¿Lograste tocar?

    0 Tocaron 0 Aún no

    ¡Graba un video tocando Cry For You y envíanoslo!

    00:00 / 00:00
    OK