Cifra Club

There Are No Words

Andy Timmons

Cifrado: Principal (guitarra y guitarra eléctrica)
tono: E
                     |--3--|                      |---3--|            
     E    E  E  E    E  E  E  E  E     Q    E  E  S   S  S E  E  S S  
E||---------------------------------|--------------------------------|
B||---------------------------------|--------------------------------|
G||-------------9-------------------|--------------------------------|
D||-----7g9--9-----7g9--L--7-----6--|--L----7--9---------------------|
A||---------------------------------|-------------9S-10S-9-7--L------|
E||---------------------------------|----------------------------9-7-|


    H        E  S    S  S S    E     E    E  E  E  E   E  E  E   
----------------------------------|-----------------------------|
----------------------------------|-----------------------------|
----------------------------------|-----------------------------|
----------------------------------|-----------------------------|
--6g7--------7--9br-(9)-7-9-9g11--|--L----------------11--9-----|
----------------------------------|-----7g9--L--8--L------------|

                  |--3--|                      |---3--|            
  E    E  E  E    E  E  E  E  E     Q    E  E  S   S  S E  E  S S  
---------------------------------|--------------------------------|
---------------------------------|--------------------------------|
-------------9-------------------|--------------------------------|
-----7g9--9-----7g9--L--7-----6--|--L----7--9---------------------|
---------------------------------|-------------9S-10S-9-7--L------|
---------------------------------|----------------------------9-7-|

                  |--3--|                                             
    H        E    S  S  S S S    E     E   E  E   E  Q    S  S  S  S  
------------------------------------|--------------------------------|
------------------------------------|--------------------------------|
------------------------------------|--------------------------------|
------------------------------------|-----11--L--10--L----L-10-11-13-|
--6g7--------7--<>9-10S-9-7-9-9g11--|--L-----------------------------|
------------------------------------|--------------------------------|

      E   S  S  Q    E   S  S  S  S  S  S  
------------------------------------------|
------------------------------------------|
------------------------------------------|
--13g14--------------------------11-13-14-|
---------12-11-12----L--12-12-14----------|
------------------------------------------|

      E   S  S  Q    E   S  S  S  S  S  S  
------------------------------------------|
------------------------------------------|
------------------------------------------|
--14g16--------------------------13-14-16-|
---------14-12-14----L--14-14-16----------|
------------------------------------------|

               |----3---|                                                    
      Q    E   S     S  S  Q     S  S E     Q    E  S  S    E  E   E     E   
-----------------------------------------|----------------------------------|
-----------------------------------------|----------------------------------|
--11g13----L--11br-(11)-9-11----11-13-9--|--L----L--8-(8)br-8---------------|
-----------------------------------------|---------------------9------9g11--|
-----------------------------------------|------------------------11--------|
-----------------------------------------|----------------------------------|

   H          E    S    S  S S E        S S   E  H        Q      
-------------------------------------|--------------------------|
-------------------------------------|--------------------------|
-------------------6br-(6)-5-6-6pbr--|--L-6b~-L--L--------------|
--11--------(11)S--------------------|--------------------5b----|
-------------------------------------|--------------------------|
-------------------------------------|--------------------------|

  |--3--|                                                             
  E  E  E  Q    E  E   E     E         E   E  Q    S S S  S S S  S S  
-----------------------------------|---------------------------------|
-----------------------------------|------------------------9---10---|
--6--8--9--L----L--8S--6br--(6)br--|--(6)--4--L----L-8-9-11---9----9-|
-----------------------------------|---------------------------------|
-----------------------------------|---------------------------------|
-----------------------------------|---------------------------------|

                      |---3--|                                              
      Q    E   E      E  E   E  E    E     Q     E   E   S    S E  E   S S  
--------------12------------------------|----------------------------------|
--10g12----L------10g12--L--10--L--7g9--|--L----10--12---------------------|
----------------------------------------|---------------11br-11-9--L-------|
----------------------------------------|-----------------------------11-9-|
----------------------------------------|----------------------------------|
----------------------------------------|----------------------------------|

  H        E   S     S  S  S     E      E     E  E   E  E   E   Q      
------------------------------------|---------------------------------|
------------------------------------|---------------------------------|
--9--------L--11br-(11)-9-11-11g13--|--13------------------13--13~----|
------------------------------------|------9g11--L--10--L-------------|
------------------------------------|---------------------------------|
------------------------------------|---------------------------------|

                  |---3--|                                                  
  E   E   E   E   E  E   E  E      E     Q     E   E   S     S  E  E   S S  
-------------12-----------------------|------------------------------------|
-----12--12------12--L--10--L---------|-------10--12-----------------------|
-------------------------------11g13--|--L------------11br-(11)-9--L-------|
--------------------------------------|-------------------------------11-9-|
--------------------------------------|------------------------------------|
--------------------------------------|------------------------------------|

                                                                  |---3---|   
  H        E   S     S  S  S     E      E   E     E   E   E   E   E   E   E   
------------------------------------|------------------------------------11--|
------------------------------------|------13pbr--L--13~--L--13--13--14------|
--9--------L--11br-(11)-9-11-11g13--|---L------------------------------------|
------------------------------------|----------------------------------------|
------------------------------------|----------------------------------------|
------------------------------------|----------------------------------------|

      E   S S  Q     E   S  S  S S  S  S  
--11g12--------------------------9-11-12-|
---------10-9-10~----L--10-10-12---------|
-----------------------------------------|
-----------------------------------------|
-----------------------------------------|
-----------------------------------------|

      E   S  S  Q     E   S  S  S  S  S  S  
--12g14---------------------------11-12-14-|
---------12-10-12~----L--12-12-14----------|
-------------------------------------------|
-------------------------------------------|
-------------------------------------------|
-------------------------------------------|

               |----3---|                    
   Q       E   S     S  S     Q     E    E   
--14pbr----L--14pbr-14-12-12g14----14b--12--|
--------------------------------------------|
--------------------------------------------|
--------------------------------------------|
--------------------------------------------|
--------------------------------------------|

   Q    E   S   S      E    E  E   E        H        E   E      S  S  E      
---L----L--11-(11)br-(11)----------------|----------------------------------|
---------------------------12--9--12pbr--|--L--------L--14pbr--13-14-14pbr--|
-----------------------------------------|----------------------------------|
-----------------------------------------|----------------------------------|
-----------------------------------------|----------------------------------|
-----------------------------------------|----------------------------------|

                              |---3---|                          
  E   E   H        E   E      E   E   E  Q    E   E  E      E    
---------------------------|--9--11--12--L----L--11--9----------|
--L--14b--L--------L-------|----------------------------12g14S--|
----------------------12b--|------------------------------------|
---------------------------|------------------------------------|
---------------------------|------------------------------------|
---------------------------|------------------------------------|

   E   E  E  S   S  E  S  S  E  E        S  S E  E  S S   S S E  Q     
-------------------------------------|--------------------------------|
--12--12--L--9S-12S-9--7S-9S-7-------|--------------------------------|
--------------------------------8br--|--(8)-6-------------------------|
-------------------------------------|--------9--L--7-9-5g6-9---------|
-------------------------------------|------------------------9--L----|
-------------------------------------|--------------------------------|

                  |---3--|                                                     
  S S S S S S S S E   E  E  S  S  E       E  S  S  Q    S  S S  S  S S  E      
--------------------------------------|---------------------------------------|
--------------------------------------|----------------------------9---12pbr--|
----------------------6--6--9----11b--|--11--9---------------9-11b---9--------|
------2---4---6-9-9b----------11------|--------11~-L----9-11------------------|
--L-4---4---7-------------------------|---------------------------------------|
--------------------------------------|---------------------------------------|

  E   E    E  E  E  S S S  S S S     E   S  S E   E  E   E  E  S  S  
-----------------------------9---|--14--12-11-L---------------------|
--L--12br--L--9--L--L-9-9-12---9-|---------------12--L--14--L----10-|
---------------------------------|----------------------------------|
---------------------------------|----------------------------------|
---------------------------------|----------------------------------|
---------------------------------|----------------------------------|

    E   S S S S  E  S S S S    S S S S    E  S  S S S   E   S S S S E   S  S  
---------------------------------------|-------------------------------------|
--8g9----------------------------------|-------------------------------------|
-------11-8-L-9------------------------|----------------------8-L---9-----11-|
----------------11--9-L----------------|------------9S-11S--9-----9----13----|
------------------------9-L-11g9-7-----|--7--9-11-L--------------------------|
-----------------------------------9-7-|-------------------------------------|

   S  S  E   E    E  E   S  S  E    E   
---------------------------------------|
------------------------14-17-17br--L--|
--------13--16b--17--L-----------------|
--16-14--------------------------------|
---------------------------------------|
---------------------------------------|

                                                                  |---3---|   
   Q     E      E   S  S  E   E      E         H         E    E   E   E   E   
----------------------------------------|---------------17br--L--16--17--19--|
--------17------------------------------|------------------------------------|
--18--------16g18-----------------------|------------------------------------|
-------------------16-14-----14--16g18--|--14g16-----------------------------|
-------------------------16-------------|------------------------------------|
----------------------------------------|------------------------------------|

   Q     E   S  S  E     S  S  S  S  S  S  
------------16----------------------------|
--17b----L-----17-17br--16----------------|
---------------------------16-18-16-------|
------------------------------------18-16-|
------------------------------------------|
------------------------------------------|

   |--3--|  |---3--|  |--3-|  |--3--|  |--3--| |--3-|  |-3-| |--3-|  
   S  S  S  S   S  S  S  S S  S  S  S  S  S  S S  S S  S S S S  S S  
--------------------------------------------------------------------|
--------------------------------------------------------------------|
--18-16----------------------13-11-13-11S-9-11-9-----------9-8------|
--------18-16S-14----16-14-----------------------11-9----------11-9-|
------------------16----------------------------------11-9----------|
--------------------------------------------------------------------|

           |--3-|  |-3-|              |-3-|        
     E     S  S S  S S S S S E  E     S S S    E   
--------------------------------------------------|
--------------------------------------------------|
--------------------------------------------------|
--9g11--11g9--------------------------------------|
-------------11-9-11-9-7-----7--9--7g10-9-7-9g11--|
-------------------------9-7----------------------|

  E   E   E   E   E    E   E     S  S  
--------------------------------------|
--------------------------------------|
-----------------11b--11--11pbr--9----|
-------------11--------------------11-|
--L--11--11---------------------------|
--------------------------------------|

  Q      E      S  S    E  E     S S    E   
-------------------------------------------|
-------------------------------------------|
--9br----9pbr------------------------------|
---------------11----9g11--9---------------|
------------------11----------11g9-7-9g11--|
-------------------------------------------|

  E    E  E     E  E     E   E     E      H           S  S  E   E    E   
--------------------------------------|--------------------14--16b--17--|
-------------------9\-------12\-------|--14b~--------15-17--------------|
----------9\--------------------------|---------------------------------|
-----/11------/11------/14-------/14--|---------------------------------|
--L-----------------------------------|---------------------------------|
--------------------------------------|---------------------------------|

  E   E   E   E   E   E  E   E         Q    E  S  S  S  S  E   E    E   
--L--16~--L--14~--L--12--L------|-------------------------12--14b--15--|
----------------------------12--|--12g19----L--L-13-13-15--------------|
--------------------------------|--------------------------------------|
--------------------------------|--------------------------------------|
--------------------------------|--------------------------------------|
--------------------------------|--------------------------------------|

  E   E  E   E  E   E  E   E         Q    E  S  S  S  S  E   E    E   
--L--14--L--12--L-------------|-------------------------10--12b--13--|
-------------------15--L--10--|--10g11----L--L-11-11-13--------------|
------------------------------|--------------------------------------|
------------------------------|--------------------------------------|
------------------------------|--------------------------------------|
------------------------------|--------------------------------------|

  E   E  E   E  E   E  S  S  S   S     Q     E   E   E   E   E    E    
--L--12--L--10--L-----------10s-12-|--12~----L--12--12--14--14b--14~--|
-------------------13--L-13--------|----------------------------------|
-----------------------------------|----------------------------------|
-----------------------------------|----------------------------------|
-----------------------------------|----------------------------------|
-----------------------------------|----------------------------------|

                           W                                        
                                                 |---3--|           
  Q    E   E     Q     E   E     Q    E   E      E  E   E  E    E   
--L----L--16pbr--L----12------|----------12------------------------|
--------------------------12--|--L----L------10g12--L--10--L--7g9--|
------------------------------|------------------------------------|
------------------------------|------------------------------------|
------------------------------|------------------------------------|
------------------------------|------------------------------------|

  Q     E   E   S     S  E   E   S S    H         S  S  S     S  S  S     E   
-------------------------------------|---------------------------------------|
--L----10--12------------------------|---------------------------------------|
---------------11br-(11)-9~--L-------|--9~--------9-11-11br-(11)-9-11-11g13--|
--------------------------------11-9-|---------------------------------------|
-------------------------------------|---------------------------------------|
-------------------------------------|---------------------------------------|

                                                        |---3--|           
  E     E  E   E  E   E   Q       E      E   E   E      E  E   E  E    E   
-------------------------------|----------------12------------------------|
-------------------------------|-----10g12--12------10g12--L--10-----8g9--|
--L------------------11b--L----|-----------------9------------------------|
-----9g11--L--10--L------------|-------7g9---9--------7g9--L---7-----5g6--|
-------------------------------|------------------------------------------|
-------------------------------|------------------------------------------|

  E  E   E   E   S     S  E   E   S S  
--------------------------------------|
--L-----10--12------------------------|
----------------11br-(11)-9~--L-------|
--L------------------------------11-9-|
--------------------------------------|
--------------------------------------|

   S S E  Q    S S  S     S  S  S  S   S  
-----------------------------------------|
--12-------------------------------------|
-----9-9--L----9-9-11br-(11)-9-11-11s-13-|
-----------------------------------------|
-----------------------------------------|
-----------------------------------------|

                            |---3---|   
  S S  E     Q    E   S  S  E   E   E   
---------------------------------------|
------13pbr--L----L--13-13-13--14--16--|
--L------------------------------------|
---------------------------------------|
---------------------------------------|
---------------------------------------|

      E.   T   T   Q     E.   S  S  S  S  S  
--------------------------------------------|
--16g17----------------------------14-16-17-|
----------14p-13h-14~----L---14-16----------|
--------------------------------------------|
--------------------------------------------|
--------------------------------------------|

      E.   T   T   Q     E   S  S  S  S  S  S  
--12g14---------------------------------------|
-------------------------------------16-17-19-|
----------16p-14h-16~----L--16-16-18----------|
----------------------------------------------|
----------------------------------------------|
----------------------------------------------|

              |----3----|                    
   Q      E   S     S   S  Q      E     E    
--------------------------------------------|
--19b~----L--19br-(19)-17-19----(19)b--17~--|
--------------------------------------------|
--------------------------------------------|
--------------------------------------------|
--------------------------------------------|


                                 W                                      
  Q    E   S  S     E    E   E   E      H        E   E      S  S  E     
-------------------------------------|---------------------------------|
--L----L--16-16br-(16)---------------|--------------14pbr--13-14-14br--|
------------------------16--13--16b--|--L--------L---------------------|
-------------------------------------|---------------------------------|
-------------------------------------|---------------------------------|
-------------------------------------|---------------------------------|

                                  |---3---|                                     
  E    E     H        E   E       E   E   E   S  S  E      E   E      S S  S S  
------------------------------|------------------------------------------------|
--L--(14)b~--L--------L-------|--14--16--17--16-14-12--12g14--12---------------|
-------------------------12b--|-----------------------------------13g11-9------|
------------------------------|-------------------------------------------11-9-|
------------------------------|------------------------------------------------|
------------------------------|------------------------------------------------|


                                   50BPM                     
  S    S   S     S   E     S  S    S  S S  S T  T T T T T S  
------------------------------------------------------------|
--9br-(9)-(9)br-(9)-(9)br-----------------------------------|
---------------------------9----9g11--9---------------------|
-----------------------------11---------9-11----------------|
---------------------------------------------9-10-9-7---7-9-|
------------------------------------------------------9-----|

  80BPM                                   
        |--6-|  |-6-|      |--6-| |--6-|  
  Q     S  S S  S S S Q    S  S S S  S S  
-----------------------------------------|
-----------------------------------------|
------------------8-9-L---------9------9-|
-------------9-11----------9-11---9-11---|
--L-----L-11-----------------------------|
-----------------------------------------|

          |--6-|  |--6-|                   
   E   E  S  S S  S S  S     E   E   Q     
------------------------------------------|
--------------------9-12-12g14--12--14----|
--11--13-------9-11-----------------------|
----------9-11----------------------------|
------------------------------------------|
------------------------------------------|

   S     S   S S     Q    Q     E   S     S  S  S E  Q     
--11br-(11)-----------------------------------------------|
------------12-9-12g14----9----12-------------------------|
-----------------------------------11br-(11)-9-11-L--L----|
----------------------------------------------------------|
----------------------------------------------------------|
----------------------------------------------------------|

               |--3--|                                  
    E  E  E    E  E  E  E  Q         W                  
--------------------------------|---------------------||
--------------------------------|---------------------||
----------9---------------------|---------------------||
--7g9--9-----7g9--L--7--L--L----|--4g6----------------||
--------------------------------|---------------------||
--------------------------------|---------------------||

00:00 / 00:00
Otros videos de esta canción
Repetir
Otros videos de esta canción
Composición de Andy Timmons
Colaboración y revisión:
  • Nickson Ramon
60 vistas
    • ½ Tono
    • A
    • Bb
    • B
    • C
    • Db
    • D
    • Eb
    • E
    • F
    • F#
    • G
    • Ab
  • Agregar a la lista

    0 comentarios

    Ver todos los comentarios

    ¿Lograste tocar?

    0 Tocaron 0 Aún no

    ¡Graba un video tocando There Are No Words y envíanoslo!

    00:00 / 00:00
    OK