Cifra Club

Theres A Drink In It

Angelic Upstarts

Cifrado: Principal (guitarra y guitarra eléctrica)
tono: F

tabbed by *


Intro

e---------------------------------------------------------------------|
B---------------------------------------------------------------------|
G---9---------9---------9---------------------------------------------|
D---9--9--10--9--9--10--9--9--10--9--7--10--9---2---------------------|
A---7--9--10--7--9--10--7--9--10--9--7--10--9---2---------------------|
E------7--8------7--8------7--8---7--5--8---7---0---------------------|

Verse Riff

P.*     ------------------------------------------|
E----------------------------------------------------------------------|
B--------------------------6~----------------------6~------------------|
G----------------------------------------------------------------------|
D-------------9-9-----------------------9-9----------------------------|
A---7-7-10-10-----8-8-7-------7-7-10-10-----8-8-7----------------------|
E----------------------------------------------------------------------|

Verse

P.*|
E----------------------------------------------------------------------|
B----------------------------------------------------------------------|
G----------------------------------------------------------------------|
D-------------9-9-----------------9-9-----------------9-9--------------|
A--7-7-10-10------8-8-7-7-7-10-10-----8-8-7-7-7-10-10-----8-8-7--------|
E----------------------------------------------------------------------|

e---------------------------------------------------------------------|
B---------------------------------------------------------------------|
G---------------------------------------------------------------------|
D---9----10---12------------------------------------------------------|
A---9----10---12------------------------------------------------------|
E---7----8----10------------------------------------------------------|

Pre Chorus
e---------------------------------------------------------------------|
B---------------------------------------------------------------------|
G------------9--------------------------------------------------------|
D------------9--------------------------------------------------------|
A--2-3-4-5---7--------------------------------------------------------|
E---------------------------------------------------------------------|

Chorus
e---------------------------------------------------------------------|
B---------------------------------------------------------------------|
G---9-9-9-9-9-9-------------------------------------------------------|
D---9-9-9-9-9-9----10---9---------------------------------------------|
A---7-7-7-7-7-7----10---9---------------------------------------------|
E------------------8----7---------------------------------------------|

Solo

e--------12-----12-------12-------------------------------------------|
B------12-----12-------12---------------------------------------------|
G--14b-----14b------14b-----12-14-15b-14-16~----12-14-15b-15b-15b-15b-|
D---------------------------------------------------------------------|
A---------------------------------------------------------------------|
E---------------------------------------------------------------------|

e---------------------------------------------------------------------|
B-14h15p14p12---------------11-12-12-12-12-12-12-12-12-12-12-12-12----|
G--------------14~----12-14-------------------------------------------|
D---------------------------------------------------------------------|
A---------------------------------------------------------------------|
E---------------------------------------------------------------------|

e------------------------------------------12-12---------12-12-12-----|
B-----------------------12~--------12--15b-------15b-15b--------------|
G-14b-14b-14b-14bp12-14-----------------------------------------------|
D---------------------------------------------------------------------|
A---------------------------------------------------------------------|
E---------------------------------------------------------------------|

e--------------12-12---------12-12-12---------12--15-14-12-15-14-12---|
B--15b-15b-15b-------15b-15b----------15b-15b-------------------------|
G---------------------------------------------------------------------|
D---------------------------------------------------------------------|
A---------------------------------------------------------------------|
E---------------------------------------------------------------------|

e-15-14-12-15-14-12-14-15-17b-----------------------------------------|
B--------------------------------------12-12-------12-12--------------|
G--------------------------------12-14-------12-14-------12-14--12~/--|
D---------------------------------------------------------------------|
A---------------------------------------------------------------------|
E---------------------------------------------------------------------|

barely audible guitar in outro
e---------------------------------------------------------------------|
B--17-17-17-17-17-17-17-17-13-13-13-13-13-12-13-12h13p12p10h12-10-8~--|
G---------------------------------------------------------------------|
D---------------------------------------------------------------------|
A---------------------------------------------------------------------|
E---------------------------------------------------------------------|

any comments/corrections contact me, please rate
00:00 / 00:00
Otros videos de esta canción
Repetir
Otros videos de esta canción
Composición de Mensi / Mond
15 vistas
    • ½ Tono
    • A
    • Bb
    • B
    • C
    • Db
    • D
    • Eb
    • E
    • F
    • F#
    • G
    • Ab
  • Agregar a la lista

    0 comentarios

    Ver todos los comentarios

    ¿Lograste tocar?

    0 Tocaron 0 Aún no

    ¡Graba un video tocando Theres A Drink In It y envíanoslo!

    00:00 / 00:00
    OK