Cifra Club

Distraction

Angels & Airwaves

Cifrado: Principal (guitarra y guitarra eléctrica)
tono: C
Intro: really fast.

Guitar one. (fade in)
e| --8----|
g| -----8-|

Guitar two(fade in at 0:13) w/ delay

e|------------------------|
g|------------------------|
b|--------9--10--9--10----|
a|------------------------|
d|------------------------|
E|------------------------|
P.M. ………………..

Chorus:
Listen for timing and stumming patterns.

e|-------------------------------------|(X2)
g|-------------------------------------|
b|--9---7---9-5--9-7---7---9-10-9------|
a|-------------------------------------|
d|--7---5---7-3--7-5---5---7-8-7-------|
E|-------------------------------------|

Verse:
w/ delay (listen for timing)

e|----12------10-|
g|----13------13-|

Chorus:

Bridge:

e|-----8----8 (X16-|
g|-----8----8------|

Chorus (many times)

Intro: (fade out)
00:00 / 00:00
Otros videos de esta canción
Repetir
Otros videos de esta canción
Compositor no encontrado.
Colaboración y revisión:
  • Jean Sapia
45 vistas
    • ½ Tono
    • A
    • Bb
    • B
    • C
    • Db
    • D
    • Eb
    • E
    • F
    • F#
    • G
    • Ab
  • Agregar a la lista

    0 comentarios

    Ver todos los comentarios

    ¿Lograste tocar?

    0 Tocaron 0 Aún no

    ¡Graba un video tocando Distraction y envíanoslo!

    00:00 / 00:00
    OK